Inekafe

piesne (417)

  texty (279) / preklady (0)
  akordy (148) / taby (121)
  noty (0) / slideshow (3)

články (167)
fotogaléria
diskusia
videá
diskografia
v obchode
odkazy
koncerty
sťahuj



pridaj vlastný článok

Inekafe:
Inekafe ve Frýdku-Místku i s Forusem! - Kapela Inekafe se vydala na Mestá Ďaleké Klubtour 2016. Během tohoto turné navštíví doh... - rockmag.cz


Chinaski:
Hudobníci budú na TOPFEST-e skladať rockovú maturitu. V porote sú aj Zuzana
Smatanová, či Polemic!
- Published by MUSIC ZONE on 24. marca 2016 | Komentáre vypnuté na Hudobníci budú na TOPFES... - music-zone.eu


Inekafe:
Inekafe predstavili prvého hosťa európskeho turné - Legendárna skupina Inekafe začne rok 2015 vo veľkom štýle. Po vydaní nového albumu vyráža... - Žijeme hudbou


Inekafe:
Inekafe pripravujú nový album Nevhodný typ - Slovenská pop-punková skupina Inekafe pripravuje svoju siedmu štúdiovku, ktorá ponesie ná...


Inekafe:
Z Iné Kafe odišiel basgitarista Peter Fóra - Zo slovenskej pop-punkovej skupiny Iné Kafe odišiel jej dlhoročný člen a basgitarista Pet...


Tomáš Bezdeda:
Jadranka či Kazík. Slávik končí, pozrite sa, kto u Slovákov bodoval pred rokmi - Jadranka či Kazík. Slávik končí, pozrite sa, kto u Slovákov bodoval pred rokmi Kým... - sme.sk


Inekafe:
Po rapovej prichádza rocková vojna: Vratko z Ine Kafe sa pustil do Zoči Voči - Po rapovej prichádza rocková vojna: Vratko z Ine Kafe sa pustil do Zoči Voči ... - aktuality.sk


Inekafe:
Festival Hrady CZ čeká víkend v Hradci nad Moravicí - Festival Hrady CZ čeká víkend v Hradci nad Moravicí];" style="display: none;">  ... - IREPORT


Annihilator:
Budzogáň ohrozovali blesky, Iné Kafe nedohrali - Sobotný program pokračuje bez zmien a vstupenky kúpené na piatok platia aj v sobotu TERC...


Annihilator:
Víkendové festivaly 9.8. - Víkendové festivaly Cez víkend sa čaká ochladenie, ale festivalové leto to nespoma... - sme.sk


 

Inekafe

Fanúšikov: 147



A B C Č D E F G H CH I J K L Ľ M N O P Q R S Š T U V W X Y Z Ž



ako:
Inekafe - 090X
Inekafe - 090X

tlač

edituj
Poznámka: fuj teda hlavn? to sólo mi dalo zabrat. Ale myslim že je to komplet

Pesničku videlo 20073 návštevníkov.

Kvalita tabov :
Hodnotilo ľudí: 5 ohodnoť aj ty
Prispievateľ:

ziki
  *** Autor textu: Iné kafe *** Autor hudby: Iné kafe

x = hrát tlumeně
^ = vytažení struny
/ = slide
p = pull off (odtržení)
h = hammer on (příklep)

INTRO:
---------------------------------------------------------------------------------
---------------------------------------------------------------------------------
--9---9(p)7-----7----9-9-9(p)7-----7----9-9-9(p)7-----9(p)7(h)9-9-9-9(p)7----7---
------------10----10-----------10----10-----------10----------------------10-----
---------------------------------------------------------------------------------
---------------------------------------------------------------------------------
jestli se tam ty odtržení hrajou si nejsem jistej,
zkuste co vám bude vyhovovat. já je tam hraju

hrát 2x


AKORDY V TABULATUŘE:
C: D: F: G:
-----------------------
-----------------------
---5---7----10---------
---5---7----10----5----
---3---5-----8----5----
------------------3----


SLOKY:
první tón se nechá znít, zbytek se hraje tlumeně:

haló haló čo to zvoní /přechod na začátek k C/
---------------------------------------------|-------------------
---------------------------------------------|-------------------
-5---5-5-5------7---7-7-7-----10---10-10-10--|-10---10-10---10---
-5---5-5-5------7---7-7-7-----10---10-10-10--|-10---10-10---10---
-3---3-3-3------5---5-5-5------8----8--8--8--|--8----8--8----8---
---------------------------------------------|-------------------
x x x ... x x x ... x x x.. x

tohle se hraje 3x, po čtvrté jsou už všechny tóny netlumené



SLOKA 1:
C D F C D F
haló haló čo to zvoní, pýtaš sa jak ňáky oný
C D F C D F
ako kovboj dnes každý tasí, o čom vravím, o čom asi, jéjéjé...


INTRO

SLOKA 2:
v autě v bytě v hrobe v kině, veksláci aj poslankyně
na rande alebo wécku, za opaskom či vo vrecku, jéjéjé ...


REFRÉN:
(všechno netlumené)
C D F G C
Načo by si si starosti robil, keď všetko zvládneš cez mobil
D F G C
Vytočíš len 090 X a kontakt musí ihneď prísť
D F G C
Tvoj dávno vysnívaný sen, splnily tri hlásky GSM
D F G C
Obavy sa rýchlo vytratia, len nesmieš byť mimo pokrytia


SLOKA 3:
C D F
Sused volal včera ženě z obývačky do predsieně
C D F
čo budú mať na večeru, to je luxus namojveru
C D F
závidím mu ako blázon a tak ráno rýchlo vstal som
C D F
rad som odstál a kúpil v akci a už som voľný ako vtáci


REF:
Načo by som si starosti robil, keď všetko zvládnem cez mobil
Vytočím len 090X a kontakt musí ihneď prísť
Môj dávno vysnívaný sen splnily tri hlásky GSM
Obavy sa rýchlo vytratia,len nesmiem byť mimo pokrytia


SÓLO:
-----------------------------------------6-7-6-7--------------
-------------------------------------------------8--8-8-10-8--
-5-7-5-7^-7---5-7-5-7^-7---5-7-7-5-5-5-7----------------------
--------------------------------------------------------------
--------------------------------------------------------------
--------------------------------------------------------------

-------------------------------------------8-10-8--8-7-8-10-8---
-10/12-12-12-12-12/10-8-10-8--10--8-8-10-8----------------------
----------------------------------------------------------------
----------------------------------------------------------------
----------------------------------------------------------------
----------------------------------------------------------------

-8-7-8-10-8---8-7-8-7-8-7-8-7-8-7-8-7--8-10-8-7----------
------------------------------------------------8-8-10-8-
---------------------------------------------------------
---------------------------------------------------------
---------------------------------------------------------
---------------------------------------------------------

----------------------------------------------------8^-10^-8^--
-10-8-------------------------------8-----8----8-10------------
------9-7----7----------7-9-10-9-10---10----10-----------------
----------10---10--(10)----------------------------------------
---------------------------------------------------------------
---------------------------------------------------------------

(druhá kytara hraje k sólu stejně jako ve slokách - C D F, opakuje se 4x)



SLOKA 4:
Konečne som odstrihnutý, koniec hanby, koniec nudy
Konečne som ako oni, musím končiť už mi zvoní, jéjéjé


REF:
Načo by sme si starosti robili, všetko dnes zvládnu mobily
Točme len 090X a kontakt musí ihneď prísť
Náš dávno vysnívaný sen splnily tri hlásky GSM
Obavy sa rýchlo vytratia, len nebuďme mimo pokrytia

ZÁVĚR:
D F G C
Už som odstrihnutý, odstrihnutý
D F G C
Už som odstrihnutý, máš ho odstrihnutý



a to stejné ještě jednou, jen bez zpěvu
(D F G C D F G C)

*************************************************************************
29.8.2003 by ziki, ziki.ice@seznam.cz, http://ziki.zde.cz, ICQ 76271113
napište mi pokud najdete chyby
*************************************************************************

 
»
Tvoje obľúbené položky
Tvoje obľúbené položky
»
Nové albumy interpreta
Nové albumy interpreta
2xCD Ine Kafe 1995-2010 naj 15 rockov
2xCD 1995-2010 naj 15
rockov
DVD Ine Kafe Live in praha
DVD Live in praha

»
Najnovšie videá
Najnovšie videá

Iné Kafe - 090X

Ine Kafe - 090x - Najlepších 15 rockov C

090X- inekafe

Inekafe - 090X (live)

Inekafe - 090X (live)

Inekafe - 090X (Live)
»
Najnavštevovanejšie piesne
Najnavštevovanejšie piesne
Mojich najlepších 15 rockov - akordy a text

Záverečná - akordy a text

Ráno - akordy a text

Špinavé objatie - akordy a text

Spomienky na budúcnosť - akordy a text

Ráno - 100% - akordy

Nezáujem - akordy a text

Ani minútu - akordy a text

Právo na šťastie - akordy a text

Mojich najlepších 15 ro(c)kov - akordy a text

viac




home | interpreti | register piesní | cd & dvd shop | pripomienky/nápady | kontakt | ochrana údajov | inzercia
Copyright © Pavol Bacigál, 2000-2017. Všetky práva vyhradené.
TOPlist