The Paranoid

piesne (53)

  texty (39) / preklady (0)
  akordy (8) / taby (12)
  noty (0) / slideshow (0)

články (16)
fotogaléria
diskusia
videá
diskografia
v obchode
odkazy
koncerty
sťahuj



pridaj vlastný článok

Asenth:
Finále Rockovej maturity 2016 preverí tvrdosť kategórie Hard & Heavy - včera o 17:30 | redakcia Súťaž neprofesionálnych hudobníkov Rocková maturita sa blíži ... - zoznam.sk


Chinaski:
Hudobníci budú na TOPFEST-e skladať rockovú maturitu. V porote sú aj Zuzana
Smatanová, či Polemic!
- Published by MUSIC ZONE on 24. marca 2016 | Komentáre vypnuté na Hudobníci budú na TOPFES... - music-zone.eu


The Paranoid:
Na Rock for People prídu aj The Paranoid - Na český festival Rock for People príde aj slovenská kapela The Paranoid. Do programu pod...


Smola A Hrušky:
Smola a Hrušky a The Paranoid odpálili turné vypredaným halloweenskym koncertom! - ... - livemusic.sk


The Paranoid:
Slovenští Paranoid hosty Rockle - Paranoid a jejich deska Sedem - Foto: Jiří Matějů Paranoid a jejich deska SedemFoto: J... - rozhlas.cz


Arakain:
Co vychází v březnu 2014: přehled novinek - Co vychází v březnu: přehled novinek];" style="display: none;">  ... - IREPORT


The Paranoid:
Skupina The Paranoid má nový album a klip k piesni Nikdy nezabudnem - ... - spravy.pozri.sk


The Paranoid:
Skupina The Paranoid sa ocitla na psychiatrii - Na psychiatrickom oddelení v Prešove koncom minulého roka náhle hospitalizovali Igora Bel...


Black Sabbath:
Paranoid, Iron Man nebo War Pigs naživo: přijedou Black Sabbath - Paranoid, Iron Man nebo War Pigs naživo: přijedou Black Sabbath];" style="display: none;"... - IREPORT


The Paranoid:
The Paranoid - Dva svety - Slovenská kapela The Paranoid začíná nabírat na slávě i mimo svou zemi. Svým mixem em... - rockmag.cz


 

The Paranoid

Fanúšikov: 30



A B C Č D E F G H CH I J K L Ľ M N O P Q R S Š T U V W X Y Z Ž



ako:
The Paranoid - Únos
The Paranoid - Únos

tlač

edituj
Rok vzniku: 2011
Poznámka: GuitarPro verzia : http://www.mediafire.com/?d3i15996jloilaj

Pesničku videlo 6678 návštevníkov.

Kvalita tabov :
Hodnotilo ľudí: 1 ohodnoť aj ty
Prispievateľ:

AraThiOn
  *** Autor textu: Igor Belaj
The Paranoid - Únos                                      
Ladenie: Drop C
Autor : Wemmber25

PM PM PM PM PM PM PM PM
E E E E E S E E E E E E E S E E
D||--------------------------------------------------|
A||--------------------------------------------------|
F||--------------------------------------------------|
C||--------------------------------------------------|
G||--8--8--8--8--------------5--5--5--5--------------|
C||--------------0--0--0--0--------------0--0--0--0--|


PM PM PM PM
E E E E E S E E E E E E E E E S
-------------------------------------------------|
-------------------------------------------------|
-------------------------------------------------|
-------------------------------------------------|
--8--8--8--8-------------------------------------|
--------------0--0--0--0--8--8--8--8--7--7--7--7-|


PM PM PM PM PM PM PM PM
E E E E E S E E E E E E E S E E
--------------------------------------------------|
--------------------------------------------------|
--------------------------------------------------|
--------------------------------------------------|
--8--8--8--8--------------5--5--5--5--------------|
--------------0--0--0--0--------------0--0--0--0--|


PM PM PM PM
E E E E E S E E E. H.
-------------------------------------------|
-------------------------------------------|
-------------------------------------------|
-------------------------------------------|
--8--8--8--8-------------------------------|
--------------0--0--0--0--8----------------|


PM PM PM PM PM PM PM PM
E E E E E S E E E E E E E S E E
--------------------------------------------------|
--------------------------------------------------|
--------------------------------------------------|
--------------------------------------------------|
--8--8--8--8--------------5--5--5--5--------------|
--------------0--0--0--0--------------0--0--0--0--|


PM PM PM PM
E E E E E S E E E E E E E E E S
-------------------------------------------------|
-------------------------------------------------|
-------------------------------------------------|
-------------------------------------------------|
--8--8--8--8-------------------------------------|
--------------0--0--0--0--8--8--8--8--7--7--7--7-|


PM PM PM PM PM PM PM PM
E E E E E S E E E E E E E S E E
--------------------------------------------------|
--------------------------------------------------|
--------------------------------------------------|
--------------------------------------------------|
--8--8--8--8--------------5--5--5--5--------------|
--------------0--0--0--0--------------0--0--0--0--|


PM PM PM PM
E E E E E S E E E E E E E E E S W. Q.
-------------------------------------------------|--------------------------|
-------------------------------------------------|--------------------------|
-------------------------------------------------|--------------------------|
-------------------------------------------------|--------------------------|
--8--8--8--8-------------------------------------|--------------------------|
--------------0--0--0--0--8--8--8--8--7--7--7--7-|--------------------------|


W. Q. W. Q.
--------------------------|--------------------------|
--------------------------|--------------------------|
--------------------------|--------------------------|
--------------------------|--------------------------|
--------------------------|--------------------------|
--------------------------|--------------------------|


H. E. E E E E E E E S
------------------------------------------|
------------------------------------------|
------------------------------------------|
------------------------------------------|
------------------------------------------|
-------------------8--8--8--8--7--7--7--7-|


PM PM PM PM PM PM PM
H E S E E E E E S S E E.
------------------------------------------------|
------------------------------------------------|
------------------------------------------------|
------------------------------------------------|
--8\--------------------3s--5-----------3s--5---|
------------0--0--0--0---------0--0--0----------|


PM PM PM PM
H E S E E E E E E E E E S
-----------------------------------------------|
-----------------------------------------------|
-----------------------------------------------|
-----------------------------------------------|
--8\-------------------------------------------|
------------0--0--0--0--8--8--8--8--7--7--7--7-|


PM PM PM PM PM PM PM
H E S E E E E E S S E E.
------------------------------------------------|
------------------------------------------------|
------------------------------------------------|
------------------------------------------------|
--8\--------------------3s--5-----------3s--5---|
------------0--0--0--0---------0--0--0----------|


E E E E E E E E E E E E E E E
-----------------------------------------------|
-----------------------------------------------|
-----------------------------------------------|
-----------------------------------------------|
-----------------------------------------------|
--8--8--8--8--8--8--8--8--7--7--7--7--7--7--7--|


E E E E Q E E E E H E
---------------------------------------------------|
---------------------------------------------------|
--10--10--10--10-------10--10--10--10--------------|
---x---x---x---x--------x---x---x---x--------------|
---8---8---8---8--------8---8---8---8--------------|
---------------------------------------------------|


Q Q Q Q Q Q Q E
----------------------------------------|
----------------------------------------|
----------------------------------------|
--8----8----8----8----8----8----8----8--|
--8----8----8----8----8----8----8----8--|
--8----8----8----8----8----8----8----8--|


Q Q Q Q Q Q Q E
----------------------------------------|
----------------------------------------|
----------------------------------------|
--5----5----5----5----5----5----5----5--|
--5----5----5----5----5----5----5----5--|
--5----5----5----5----5----5----5----5--|


Q Q Q Q Q Q Q E
----------------------------------------|
----------------------------------------|
----------------------------------------|
--0----0----0----0----0----0----0----0--|
--0----0----0----0----0----0----0----0--|
--0----0----0----0----0----0----0----0--|


Q Q Q Q Q Q Q E
----------------------------------------|
----------------------------------------|
--5----5----5----5----5----5----5----5--|
--5----5----5----5----5----5----5----5--|
--3----3----3----3----3----3----3----3--|
----------------------------------------|


Q Q Q Q Q Q Q E
----------------------------------------|
----------------------------------------|
----------------------------------------|
--8----8----8----8----8----8----8----8--|
--8----8----8----8----8----8----8----8--|
--8----8----8----8----8----8----8----8--|


Q Q Q Q Q Q Q E
----------------------------------------|
----------------------------------------|
----------------------------------------|
--5----5----5----5----5----5----5----5--|
--5----5----5----5----5----5----5----5--|
--5----5----5----5----5----5----5----5--|


Q Q Q Q Q Q Q E
----------------------------------------|
----------------------------------------|
----------------------------------------|
--0----0----0----0----0----0----0----0--|
--0----0----0----0----0----0----0----0--|
--0----0----0----0----0----0----0----0--|


Q Q Q Q Q Q Q E
----------------------------------------|
----------------------------------------|
--5----5----5----5----5----5----5----5--|
--5----5----5----5----5----5----5----5--|
--3----3----3----3----3----3----3----3--|
----------------------------------------|


PM PM PM PM PM PM PM PM
E E E E E S E E E E E E E S E E
--------------------------------------------------|
--------------------------------------------------|
--------------------------------------------------|
--------------------------------------------------|
--8--8--8--8--------------5--5--5--5--------------|
--------------0--0--0--0--------------0--0--0--0--|


PM PM PM PM
E E E E E S E E E E E E E E E S
-------------------------------------------------|
-------------------------------------------------|
-------------------------------------------------|
-------------------------------------------------|
--8--8--8--8-------------------------------------|
--------------0--0--0--0--8--8--8--8--7--7--7--7-|


PM PM PM PM PM PM PM PM
E E E E E S E E E E E E E S E E
--------------------------------------------------|
--------------------------------------------------|
--------------------------------------------------|
--------------------------------------------------|
--8--8--8--8--------------5--5--5--5--------------|
--------------0--0--0--0--------------0--0--0--0--|


PM PM PM PM
E E E E E S E E E E E E E E E S
-------------------------------------------------|
-------------------------------------------------|
-------------------------------------------------|
-------------------------------------------------|
--8--8--8--8-------------------------------------|
--------------0--0--0--0--8--8--8--8--7--7--7--7-|


PM PM PM PM PM PM PM
H E S E E E E E S S E E.
------------------------------------------------|
------------------------------------------------|
------------------------------------------------|
------------------------------------------------|
--8\--------------------3s--5-----------3s--5---|
------------0--0--0--0---------0--0--0----------|


PM PM PM PM
H E S E E E E E E E E E S
-----------------------------------------------|
-----------------------------------------------|
-----------------------------------------------|
-----------------------------------------------|
--8\-------------------------------------------|
------------0--0--0--0--8--8--8--8--7--7--7--7-|


PM PM PM PM PM PM PM
H E S E E E E E S S E E.
------------------------------------------------|
------------------------------------------------|
------------------------------------------------|
------------------------------------------------|
--8\--------------------3s--5-----------3s--5---|
------------0--0--0--0---------0--0--0----------|


E E E E E E E E E E E E E E E
-----------------------------------------------|
-----------------------------------------------|
-----------------------------------------------|
-----------------------------------------------|
-----------------------------------------------|
--8--8--8--8--8--8--8--8--7--7--7--7--7--7--7--|


E E E E Q E E E E H E
---------------------------------------------------|
---------------------------------------------------|
--10--10--10--10-------10--10--10--10--------------|
---x---x---x---x--------x---x---x---x--------------|
---8---8---8---8--------8---8---8---8--------------|
---------------------------------------------------|


Q Q Q Q Q Q Q E
----------------------------------------|
----------------------------------------|
----------------------------------------|
--8----8----8----8----8----8----8----8--|
--8----8----8----8----8----8----8----8--|
--8----8----8----8----8----8----8----8--|


Q Q Q Q Q Q Q E
----------------------------------------|
----------------------------------------|
----------------------------------------|
--5----5----5----5----5----5----5----5--|
--5----5----5----5----5----5----5----5--|
--5----5----5----5----5----5----5----5--|


Q Q Q Q Q Q Q E
----------------------------------------|
----------------------------------------|
----------------------------------------|
--0----0----0----0----0----0----0----0--|
--0----0----0----0----0----0----0----0--|
--0----0----0----0----0----0----0----0--|


Q Q Q Q Q Q Q E
----------------------------------------|
----------------------------------------|
--5----5----5----5----5----5----5----5--|
--5----5----5----5----5----5----5----5--|
--3----3----3----3----3----3----3----3--|
----------------------------------------|


Q Q Q Q Q Q Q E
----------------------------------------|
----------------------------------------|
----------------------------------------|
--8----8----8----8----8----8----8----8--|
--8----8----8----8----8----8----8----8--|
--8----8----8----8----8----8----8----8--|


Q Q Q Q Q Q Q E
----------------------------------------|
----------------------------------------|
----------------------------------------|
--5----5----5----5----5----5----5----5--|
--5----5----5----5----5----5----5----5--|
--5----5----5----5----5----5----5----5--|


Q Q Q Q Q Q Q E
----------------------------------------|
----------------------------------------|
----------------------------------------|
--0----0----0----0----0----0----0----0--|
--0----0----0----0----0----0----0----0--|
--0----0----0----0----0----0----0----0--|


Q Q Q Q Q Q Q E
----------------------------------------|
----------------------------------------|
--5----5----5----5----5----5----5----5--|
--5----5----5----5----5----5----5----5--|
--3----3----3----3----3----3----3----3--|
----------------------------------------|


E E E E E E E E E E E E E E. S
------------------------------------------------------|
-----------------------------10-----10-----8h--10-----|
--7--10--9--7--10--9--7--10-------------------------7-|
------------------------------------------------------|
------------------------------------------------------|
------------------------------------------------------|


E. E E E E E E E E E E E E E.
-----------------------------------------------------|
------------------------------10-----10-----8h--10---|
--L---10--9--7--10--9--7--10-------------------------|
-----------------------------------------------------|
-----------------------------------------------------|
-----------------------------------------------------|


E. E E E E E E E E E E E E E.
-----------------------------------------------------|
------------------------------10-----10-----8h--10---|
--7---10--9--7--10--9--7--10-------------------------|
-----------------------------------------------------|
-----------------------------------------------------|
-----------------------------------------------------|


E. E E E E E E E E E E E E E.
-----------------------------------------------------|
------------------------------10-----10-----8h--10---|
--7---10--9--7--10--9--7--10-------------------------|
-----------------------------------------------------|
-----------------------------------------------------|
-----------------------------------------------------|


E. E E E E E E E E E E E E E.
-----------------------------------------------------|
------------------------------10-----10-----8h--10---|
--7---10--9--7--10--9--7--10-------------------------|
-----------------------------------------------------|
-----------------------------------------------------|
-----------------------------------------------------|


E. E E E E E E E E E E E E E.
-----------------------------------------------------|
------------------------------10-----10-----8h--10---|
--7---10--9--7--10--9--7--10-------------------------|
-----------------------------------------------------|
-----------------------------------------------------|
-----------------------------------------------------|


E. E E E E E E E E E E E E E.
-----------------------------------------------------|
------------------------------10-----10-----8h--10---|
--7---10--9--7--10--9--7--10-------------------------|
-----------------------------------------------------|
-----------------------------------------------------|
-----------------------------------------------------|


E. E E E E E E E E E E E E E.
-----------------------------------------------------|
------------------------------10-----10-----8h--10---|
--7---10--9--7--10--9--7--10-------------------------|
-----------------------------------------------------|
-----------------------------------------------------|
-----------------------------------------------------|


W H. E W H. E
--17---------------------------------|--------------------18------------L--|
--------------------15------------L--|--18---------------------------------|
-------------------------------------|-------------------------------------|
-------------------------------------|-------------------------------------|
-------------------------------------|-------------------------------------|
-------------------------------------|-------------------------------------|


W H Q. Q. W H
--17-----------------L--------20------|--L------------------------17--------|
--------------------------------------|---------18--------------------------|
--------------------------------------|-------------------------------------|
--------------------------------------|-------------------------------------|
--------------------------------------|-------------------------------------|
--------------------------------------|-------------------------------------|


Q. W H Q. W H
--L----------------------------------|---------18----------------17--------|
---------15----------------18--------|--L----------------------------------|
-------------------------------------|-------------------------------------|
-------------------------------------|-------------------------------------|
-------------------------------------|-------------------------------------|
-------------------------------------|-------------------------------------|


W. Q. E E E E E. E E E E E. E E. E.
--L-----------------------|---------------------------------------------|
--------------------------|---------------------------------------------|
--------------------------|---------------------------------------------|
--------------------------|--8--8--8--8------8--8--8--8------8--8-------|
--------------------------|--8--8--8--8------8--8--8--8------8--8-------|
--------------------------|--8--8--8--8------8--8--8--8------8--8-------|


E E E E E. E E E E E. E E. E.
---------------------------------------------|
---------------------------------------------|
---------------------------------------------|
--5--5--5--5------5--5--5--5------5--5-------|
--5--5--5--5------5--5--5--5------5--5-------|
--5--5--5--5------5--5--5--5------5--5-------|


E E E E E. E E E E E. E E. E.
---------------------------------------------|
---------------------------------------------|
---------------------------------------------|
--0--0--0--0------0--0--0--0------0--0-------|
--0--0--0--0------0--0--0--0------0--0-------|
--0--0--0--0------0--0--0--0------0--0-------|


E E E E E. E E E E E. E E. E.
---------------------------------------------|
---------------------------------------------|
--5--5--5--5------5--5--5--5------5--5-------|
--5--5--5--5------5--5--5--5------5--5-------|
--3--3--3--3------3--3--3--3------3--3-------|
---------------------------------------------|


E E E E E. E E E E E. E E. E.
---------------------------------------------|
---------------------------------------------|
---------------------------------------------|
--8--8--8--8------8--8--8--8------8--8-------|
--8--8--8--8------8--8--8--8------8--8-------|
--8--8--8--8------8--8--8--8------8--8-------|


E E E E E. E E E E E. E E. E.
---------------------------------------------|
---------------------------------------------|
---------------------------------------------|
--5--5--5--5------5--5--5--5------5--5-------|
--5--5--5--5------5--5--5--5------5--5-------|
--5--5--5--5------5--5--5--5------5--5-------|


E E E E E. E E E E E. E E. E.
---------------------------------------------|
---------------------------------------------|
---------------------------------------------|
--0--0--0--0------0--0--0--0------0--0-------|
--0--0--0--0------0--0--0--0------0--0-------|
--0--0--0--0------0--0--0--0------0--0-------|


E E E E E. E E E E E. E E. E. W. Q.
---------------------------------------------|--------------------------||
---------------------------------------------|--------------------------||
--5--5--5--5------5--5--5--5------5--5-------|--------------------------||
--5--5--5--5------5--5--5--5------5--5-------|--0----------------L------||
--3--3--3--3------3--3--3--3------3--3-------|--0----------------L------||
---------------------------------------------|--0----------------L------||




Duration Legend
---------------
W - whole
H - half
Q - quarter
E - 8th
S - 16th
T - 32nd
X - 64th
. - note dotted
|-n-| - n-tuplets


Tablature Legend
----------------
L - tied note
x - dead note
g - grace note
(n) - ghost note
> - accentuded note
NH - natural harmonic
AH - artificial harmonic
TH - tapped harmonic
SH - semi harmonic
PH - pitch harmonic
h - hammer on
p - pull off
b - bend
br - bendRelease
pb - preBend
pbr - preBendRelease
brb - bendReleaseBend
\n/ - tremolo bar dip
\n - tremolo bar dive
-/n - tremolo bar Release up
/n\ - tremolo bar inverted dip
/n - tremolo bar return
-\n - tremolo bar Release down
S - shift slide
s - legato slide
/ - slide into from below or out of upwards
\ - slide into from above or out of downwards
~ - vibrato
W - wide vibrato
tr - trill
TP - tremolo picking
T - tapping
S - slap
P - pop
< - fade in
^ - brush up
v - brush down

 
»
Tvoje obľúbené položky
Tvoje obľúbené položky
»
Nové albumy interpreta
Nové albumy interpreta
CD Paranoid Tu a teraz
CD Tu a teraz
VINYL Paranoid Satyagraha [vinyl]
VINYL Satyagraha
[vinyl]
CD Paranoid Satyagraha
CD Satyagraha
CD The Paranoid Sedem
CD Sedem

»
Najnovšie videá
Najnovšie videá

The Paranoid - Únos (akustická) - TV JOJ

The Paranoid - Únos (Guitar cover)

The Paranoid - Únos (live) Pustá Polom

The Paranoid - Únos [2.7.2011 - Lhotky U

The Paranoid - Únos (bass cover)

The Paranoid - Únos | Nitra OC Mlyny (un
»
Najnavštevovanejšie piesne
Najnavštevovanejšie piesne
Niekde tam - akordy a text

Zachráň ma - akordy

V útrobách - akordy a text

Smäd - akordy a text

Smäd - text

Únos - text

Niekde tam - akordy a text

Odkaz - text

Zachráň Ma - text

Búrka Sĺz - text

viac




home | interpreti | register piesní | cd & dvd shop | pripomienky/nápady | kontakt | ochrana údajov | inzercia
Copyright © Pavol Bacigál, 2000-2017. Všetky práva vyhradené.
TOPlist