Kabát

piesne (536)

  texty (262) / preklady (0)
  akordy (174) / taby (242)
  noty (0) / slideshow (0)

články (317)
fotogaléria
diskusia
videá
diskografia
v obchode
odkazy
koncerty
sťahuj



pridaj vlastný článok

Kabát:
Skupina Kabat na Topfeste! - ... - livemusic.sk


Kabát:
ROCK POD KAMEŇOM PODPORUJE ČESKO-SLOVENSKÚ ROCKOVÚ SCÉNU - Kompletný line-up nabitý svetovými rockermi s výbornou muzikou uzatvárajú zoskupenia rock... - P.Dráb


Accept:
Report z Metalfest Open Air 2016 v Plzni - Pamatujete na rok 2010, kdy se Metalfest Open Air konal poprvé? Tenkrát byl součástí sé... - rockmag.cz


Kabát:
Kabát prý prodal nejvíce desek, cenu na Andělech ale nevyhraje - Kabát prý prodal nejvíce desek, cenu na Andělech ale nevyhraje Nové desky pro 14. tý... - musicserver.cz


Adele:
Pětadvacátý ročník hudebních cen Anděl zná své výherce - Pětadvacátý ročník hudebních cen Anděl zná své výherce Video: Slza v novém klipu k p... - musicserver.cz


Kabát:
Kabát tvrdí, že je nespravedlivě vyřazen z boje o nejprodávanější album - Skupina Kabát tvrdí, že byla vyřazena z boje o nejprodávanější album loňského roku. Stalo... - novinky.cz


Kabát:
Kabát vyhlásil bojkot cenám Anděl! Podle rockerů jsou výsledky zmanipulované! - Skupina Kabát letošní ceny Anděl bude bojkotovat. Podle ní jsou výsledky zmanipulované. ... - blesk.cz


Kabát:
Spokojený rocker Pepa Vojtek: Vyvedl těhotnou manželku na nákupy - Šťastný rocker Pepa Vojtek vyvedl těhotnou manželku. Pepa Vojtek s manželkou Jovankou vy... - blesk.cz


Chinaski:
Hudobníci budú na TOPFEST-e skladať rockovú maturitu. V porote sú aj Zuzana
Smatanová, či Polemic!
- Published by MUSIC ZONE on 24. marca 2016 | Komentáre vypnuté na Hudobníci budú na TOPFES... - music-zone.eu


Kabát:
Na 13-tom ročníku festivalu TOPFEST to roztočia kapely Kabát, Puddle of Mudd a
UK Subs!
- ... - livemusic.sk


 

Kabát

Fanúšikov: 177



A B C Č D E F G H CH I J K L Ľ M N O P Q R S Š T U V W X Y Z Ž



ako:
Kabát - Kalamity Jane - celé a správně
Kabát - Kalamity Jane - celé a správně

tlač

edituj
Poznámka: Hodnoťte !!!!!!!

Pesničku videlo 5329 návštevníkov.

Kvalita tabov :
Hodnotilo ľudí: 1 ohodnoť aj ty
Prispievateľ:

patmull
  *** Autor textu: Milan Špalek *** Autor hudby: Tomáš Krulich
Intro: 
2x
e-----------------------
H-4-4--5-4---4-5-4-5-4----
G-4-4--4-4---4-4-4-4-4----

Sólo:
1. kytara:
4x
e--------4------7----------4--6--4--------
H-5--7-----5--7-----7--4--------------4--4
G-----------------------------------4---4-

2. kytara
D------6-------6--8--6----------
A-7--9---9--6------------6---6-----
E----------------------7---7---


Sloka 1:
Tady si musíte naposlouchat kolikrát to tam je

D---6-----------------------------------
A---4----------4-----------------------
E--------------6------------------------
Kalamity Jane, ty její kolty krutý jsou,

Riff:

D------2--------4-------------
A----2----2-2------4s2----------
E--0---------------------

s - skluz

Tady je zase to samé

Mackie Messer zlej a Sarka Farka nocí jdou.
Maxmilián Dráp, kdejaká havěť se tu potlouká.
Nemělas to brát, nemrtvej do ucha ti zabrouká.

Pre chorus:
Tady si to zase musíte naposlouchat

D------------------------
A--4----------------------
E--2----------------------
No tak ještě nechoď spát,

D--6----------------------
A--4----------------------
E------------------------
oni budou si tak trochu hrát,

D-6s8--8--8--------------------
A-4s6--6--6--------------------
E------------------------------
jen s tebou.

Sólo: 4x

Sloka 2:
Vem si bílej šál a šaty černý krajkový.
Umej se a pojď, já ukážu ti věci takový.
A kolem příšer noční rej,
bude to vono, a ty hudbo hrej.

Refrén:
Zase si to musíte naposlouchat
D------------------------
A-7-----------------------
E-5-----------------------
Walz nám dodá Johann Strauss

D------------------------
A-2-----------------------
E-0-----------------------
Přídou Filipes i Mickey Mouse

D--5---------------------------------5s7-----
A--3---------------------------------3s5----
E---------------------------------------
Dýdžej dá tam tuhej haus, jak to mám rád.

G------------7------------7----
D-7----------7------------7----
A-5----------5----------------
E-----------------------------
Dávný temný síly, který znám

D------------------------
A-2-----------------------
E-0-----------------------
Já bejt tebou, tak jim dám

D------------------------
A-2------5-----------------
E-0------3-----------------
Jsou tu všude kolem nás
D--------7-------4---------
A-5------5-------2-----------
E-3-----------------------
a je to znát, vem mě sebou.

Po refrénu:
1. kytara hraje pořád dokola zběsilým tempem toto:
H-10-7-10-7-10-7-10-----------

2. hraje tohle

3x
D---4-4---4-----------------
A---2-2---2----------------
E------------------------

na konci pak: D--4s6--------
A--2s4--------


Sloka 3:
Kalamity Jane, ty její kolty krutý jsou,
Mackie Messer zlej a Sarka Farka nocí jdou.
No tak ještě nechoď spát,
oni budou si jen trochu hrát,
teď s tebou.

Konec:

1. kytara hraje asi 9x sólo, 2. se potom přidá a hraje 4x intro



 
»
Tvoje obľúbené položky
Tvoje obľúbené položky
»
Nové albumy interpreta
Nové albumy interpreta
DVD Kabat KabÁt 2013-2015 vypich 2014 + o2 arena [3dvd+cd]
DVD Kabát 2013-2015
vypich 2014 + o2
arena [3dvd+cd]
4xCD Kabat Original albums 4cd vol.1
4xCD Original albums
4cd vol.1
3xVINYL Kabat Suma sumarum [vinyl]
3xVINYL Suma sumarum
[vinyl]
CD Kabát Do pekla do nebe
CD Do pekla do nebe
2xCD Kabat Banditi di praga turne 2011
2xCD Banditi di praga
turne 2011
CD Kabat Banditi di praga
CD Banditi di praga

»
Najnovšie videá
Najnovšie videá

Kabát - Kalamity Jane (CD "Dole v dole"

Kabát - Kalamity Jane ( Vypich )

Kabát - KALAMITY JANE

Kabát - Kalamity Jane [Banditi di praga

KABÁT - Kalamity Jane (Live) [official v

Kabát - Kalamity Jane
»
Najnavštevovanejšie piesne
Najnavštevovanejšie piesne
Malá dáma - akordy a text

Houby magický - akordy a text

Pohoda - akordy a text

Western Boogie - akordy

Kdoví jestli - akordy a text

Burlaci - akordy a text

Brousíme nože - akordy a text

Corrida - akordy a text

Schody - akordy a text

Malá Dáma ver.2 - akordy a text

viac




home | interpreti | register piesní | cd & dvd shop | pripomienky/nápady | kontakt | ochrana údajov | inzercia
Copyright © Pavol Bacigál, 2000-2017. Všetky práva vyhradené.
TOPlist