Laeg Mortemir

piesne (18)

  texty (14) / preklady (0)
  akordy (15) / taby (1)
  noty (0) / slideshow (0)

články (0)
fotogaléria
diskusia
videá
diskografia
v obchode
odkazy
koncerty
sťahuj



pridaj vlastný článok




 

Laeg Mortemir

Fanúšikov: 1



A B C Č D E F G H CH I J K L Ľ M N O P Q R S Š T U V W X Y Z Ž



ako:
Laeg Mortemir - Elfí Hostina
Laeg Mortemir - Elfí Hostina

tlač

edituj
Pesničku videlo 1933 návštevníkov.

Kvalita tabov : bez hodnotenia
Hodnotilo ľudí: 0 ohodnoť aj ty
Prispievateľ:

Elijah
  *** Autor textu: Vilem Majewski *** Autor hudby: Laeg Mortemir
|-------------------|------0-1-0------------------|
|--0-1-3-1-0--------|-0-1-3------3-1-0---0--3-1-0-|
|-2---------2-0-0-2-|------------------0----2-2-2-|
|-----------2-0-0-2-|-----------------------------|
|-------------------|-----------------------------|
|-------------------|-----------------------------|

|-------------------|
|--0-1-3-1-0--------|
|-2---------2-0-0-2-|
|-----------2-0-0-2-|
|-------------------|
|-------------------|


 
»
Tvoje obľúbené položky
Tvoje obľúbené položky
»
Nové albumy interpreta
Nové albumy interpreta

»
Najnovšie videá
Najnovšie videá

Laeg Mortemir: "Dcera krále" a "Bába"
»
Najnavštevovanejšie piesne
Najnavštevovanejšie piesne
Dědek - akordy a text

Cesta Frodo Pytlíka do Mordoru - akordy

Syrovátka - akordy

Jednou Nohou V Hrobě - akordy

Aredhel - text

Elfí Hostina - akordy a text

Elfí Hostina - taby

Aredhel - akordy a text

Númenor - akordy a text

Báje v nás - akordy a text

viac




home | interpreti | register piesní | cd & dvd shop | pripomienky/nápady | kontakt | ochrana údajov | inzercia
Copyright © Pavol Bacigál, 2000-2017. Všetky práva vyhradené.
TOPlist