Priessnitz

piesne (35)

  texty (30) / preklady (0)
  akordy (22) / taby (4)
  noty (0) / slideshow (0)

články (76)
fotogaléria
diskusia
videá
diskografia
v obchode
odkazy
koncerty
sťahuj



pridaj vlastný článok

Priessnitz:
„Sme cédečková kapela” - Do nového roka vstúpili Priessnitz presne tak, ako zakončili aj ten predchádzajúci, teda ... - supraphon


:
Nové desky pro 49. týden - Nové desky pro 49. týden Nominacím na Grammy vévodí Beyoncé, Drake, Rihanna a Kanye ... - musicserver.cz


Priessnitz:
Jaromír Švejdík (Priessnitz) - Nemám rád řachandu, mám rád skrytou sílu - Vydáno: 02.11.2016 15:45 v sekci Rozhovory - Alena Bílková Priessnitz vydali svou oficiá... - musicserver.cz


Priessnitz:
Priessnitz krasosmutní v nádherné baladě "Tam na poli" - Vydáno: 07.10.2016 17:52 v sekci Video - Ondřej Selner SDÍLET: U příležitosti d... - musicserver.cz


Priessnitz:
Priessnitz vydává po deseti letech album Beztíže - Aktualizace: 30.09.2016 09:28 Vydáno: 30.09.2016, 09:21 Sledovat zprávu foto Zpěvá... - ceskenoviny.cz


Autumnist:
Ne zrovna nová deska na MamaMrdaMaso. Ale zásadní, - MusicZone | recenze Stevie Brufen - Death Of Stevie Brufen (24. 07. 2013, 18:00)... - musiczone.cz


Marián Bango:
Koncerty v Praze, Brně a Ostravě budou odvracet konec světa - 13. listopadu 2012 7:00 PRAHA - Zároveň v pražské Incheba Areně, brněnské Flédě a ... - lidovky.cz


Priessnitz:
Poličské Rockoupání s Priessnitz, Tichou dohodou či Hadry z těla už tento pátek
a sobotu
- muzikus.cz


Priessnitz:
Priessnitz v Roxy vyprovodí ILLE do hvězdného nebe - musicweb.cz


Priessnitz:
Projekt Departure přiveze do Roxy Priessnitz "potichu" & ille - musicserver.cz


 

Priessnitz

Fanúšikov: 3



A B C Č D E F G H CH I J K L Ľ M N O P Q R S Š T U V W X Y Z Ž



ako:
Priessnitz - Mimosezóna
Priessnitz - Mimosezóna

tlač

edituj
Rok vzniku: 2006
Poznámka: verze z alba Stereo

Pesničku videlo 6292 návštevníkov.

Kvalita tabov : bez hodnotenia
Hodnotilo ľudí: 0 ohodnoť aj ty
Prispievateľ:

kwaczek
Verse:
E|--------3-----3--3-----------------3----------------------
B|--------3-----0--3-----3-----------3----------------------
G|-----0-----0--------0-----------2-----2--0/2--0-----------
D|-------------------------------------------------0--------
A|--3----------------------(0)-2----------------------2-(0)-
E|----------------------------------------------------------


Chorus:
E|--8----10----0------------------
B|--8----10----0------------------
G|--7----9-----0------------------
D|-------------9-------10--9---7--
A|--7----9-----10------10--10--9--
E|-------------0-------0---0---0--


Middlesbrough:
E|--------------------------
B|--7-----5-----5-----5-----
G|--9-----7-----5-----7-----
D|--9-----7-----5-----7-----
A|--7-----5-----3-----5-----
E|--------------------------

Konec:
E|--7---------------7-7-5-5---------------------
B|--8---------------5-5-5-8--8-8--8-10-8--------
G|--9---------------5-5-5-5--9--9--------9------
D|----------------------------------------------
A|------------------0-0-0-0--7------------------
E|--8------------------------0------------------

 
»
Tvoje obľúbené položky
Tvoje obľúbené položky
»
Nové albumy interpreta
Nové albumy interpreta
CD Priessnitz Beztize
CD Beztize
CD Priessnitz Stereo
CD Stereo
2xCD V/a Indies Records 2004 Indies records 2004
2xCD Indies records
2004
CD Priessnitz Nebel
CD Nebel
CD  Priessnitz Freiwaldau
CD Freiwaldau

»
Najnovšie videá
Najnovšie videá

Priessnitz - Mimosezóna - Portrét bubens

PRIESSNITZ - Mimosezóna (live in Medúza

Priessnitz Mimosezóna live at LFŠ 2014

Priessnitz - Mimosezóna

Priessnitz - Mimosezóna

Priessnitz - Mimosezóna, live Tančírna
»
Najnavštevovanejšie piesne
Najnavštevovanejšie piesne
Děláže - akordy a text

Jaro - akordy a text

Mimosezóna - taby

Ave Maria - akordy a text

Nebolí - akordy a text

Jeremiáš - akordy a text

Sluníčko - akordy a text

V samotách - akordy a text

Drahá - akordy a text

Sny (Na sever) - akordy a text

viac




home | interpreti | register piesní | cd & dvd shop | pripomienky/nápady | kontakt | ochrana údajov | inzercia
Copyright © Pavol Bacigál, 2000-2017. Všetky práva vyhradené.
TOPlist