Alkehol

piesne (254)

  texty (176) / preklady (0)
  akordy (104) / taby (54)
  noty (0) / slideshow (0)

články (47)
fotogaléria
diskusia
videá
diskografia
v obchode
odkazy
koncerty
sťahuj



pridaj vlastný článok

Alkehol:
Alkehol oslaví čtvrtstoletí v Lucerně. Po jejich boku vystoupí Pepa Vojtek,
Petr Janda, Tři sestry a Lukáš Pavlásek
- Vydáno před 13 hodinami | autor: Nicola Bernard Litry piva, hromada alkoholu a t... - ireport.cz


Alkehol:
Alkehol - Do bezvědomí - 12.12.2012 ve 12 hodin vyšlo nové CD skupiny Alkehol pod hlavičkou vydavatelstv... - rockmag.cz


Alkehol:
Alkehol slaví 20 let své existence na turné a výběrovým albem - ceskenoviny.cz


Alkehol:
Hořké alkeholové vystřízlivění - musicserver.cz


Alkehol:
Na Wings Rockfeste v Očovej vystúpia Desmod, Alkehol i Brichta - Na letisku pri obci Očová sa premiérovo uskutoční letné hudobné podujatie Wings R...


Alkehol:
RECENZE: Písničkový tuplák Alkeholu je průvodcem na dvacetiletém tahu - ireport.cz


Alkehol:
Alkehol: Ke kalhotkám přidáme na web i boxerky - denik.cz


Alkehol:
Alkehol zpívají o „chlastu“ už 20 let, oslaví to turné i albem - ireport.cz


Alkehol:
ALKEHOL 20 LET NA TAHU - Tuplák 2CD všech nejlepších kousků… Skupina ALKEHOL letos slaví 20 let svojí ex...


Alkehol:
Noc plná hvězd s Mr. Big a Pro-Pain, Basinfirefest s Ill Niño, Benátská
noc s Clawfinger
- muzikus.cz


 

Alkehol

Fanúšikov: 27



A B C Č D E F G H CH I J K L Ľ M N O P Q R S Š T U V W X Y Z Ž



ako:
Alkehol - Zmaštěnej
Alkehol - Zmaštěnej

tlač

edituj
Pesničku videlo 13013 návštevníkov.

Kvalita tabov :
Hodnotilo ľudí: 1 ohodnoť aj ty
Prispievateľ:

Black
  *** Autor textu: Black *** Autor hudby: Alkehol
INTRO:

E// ------------------------------------- 3x
B// -------------------------------------
G// -----8--7--8--7--8--8--7--8-10--
D// -----8--8--8--8--8--8--8--8--8--
A// -------------------------------------
E// -------------------------------------

E// -------------------------------------
B// -------------------------------------
G// -----8--7--8--7--------------------
D// -----8--8--8--8--8----------------
A// -------------------8----------------
E// -------------------------------------

INTRO 2: (4x)

E// ------------------------------------ 3x
B// ------------------------------------
G// ----8--7--8--7--8--8--7--8--10-
D// ------------------------------------
A// ------------------------------------
E// ------------------------------------

E// ------------------------------------
B// ------------------------------------
G// ----8--7--------8--8--7----------
D// -----------8~ -------------8~ ----
A// ------------------------------------
E// ------------------------------------

SLOKA: (tlumené zápěstím, hraj šestnáctiny) 2x

E// ------------
B// ------------
G// ------------
D// ------------
A// --6---------
E// ------6--4--

REFRÉN: 4x

E// ------------------------------------------------
B// ------------------------------------------------
G// --8--8--8--------------------------------------
D// --8--8--8----8--8--8----6--6--6--6--6--6--
A// --6--6--6----8--8--8----6--6--6--6--6--6--
E// ---------------6--6--6----4--4--4--4--4--4--



následuje INTRO 2: 1x

následuje SLOKA: 2x

následuje REFRÉN: 4x

následuje INTRO 2: 2x

SÓLO:

E// ----------------------------------------------------------------------
B// ----------------------------------------------------------------------
G// ----8--7--8--7--8--8--7--8--10--8--7--8--7--8--8--7--8--10--
D// ----------------------------------------------------------------------
A// ----------------------------------------------------------------------
E// ----------------------------------------------------------------------

E// ---------------------------------------
B// ---------------------------------------
G// --13--13--13--13--12--13--12-----------
D// -------------------------------13------
A// ---------------------------------------
E// ---------------------------------------

E// --------------------------------------------
B// --------------------------------------------
G//-------13--12-----------13--12----------
D// --15-----------13~ --------------13~ --
A// -------------------------------------------
E// --------------------------------------------

E// ----------------------------------------------------------
B// -----------------------------------------------------------
G//13--13--13--12--13--12--------------13--12--------
D// -----------------------13~ -----15----------13~ -
A// ----------------------------------------------------------
E// ----------------------------------------------------------

E// --------------------------------------------------------
B// --------------------------------------------------------
G// --------------------------------------------------------
D// --13--12----------------------------------------------
A//------------13~ -----------13--13--13--10--13--15-
E// ---------------------------------------------------------

E// --------------------------------------------
B// --------------------------------------------
G//-------13--12-----------13--12----------
D// ---------------13~ --------------13~ --
A// -------------------------------------------
E// --------------------------------------------

E// ----------------------------------------------------------
B// -----------------------------------------------------------
G//13--13--13--12--13--12---------------13--12--------
D// -----------------------13~ -------15--------13~ -
A// ----------------------------------------------------------
E// ----------------------------------------------------------

E// --------------------------------------------------------
B// --------------------------------------------------------
G// --------------------------------------------------------
D// --13--12----------------------------------------------
A//------------13~ -----------13--13--13--10--13--15-
E// ---------------------------------------------------------



následuje REFRÉN a konec který se hraje stejně

pozn: nejsem si jistý kolikrát se opakují vyhrávky ale to oposloucháte =)

 
»
Tvoje obľúbené položky
Tvoje obľúbené položky
»
Nové albumy interpreta
Nové albumy interpreta
6
3xCD Alkehol Platinum collection
3xCD Platinum
collection
CD Alkehol R.u.m.
CD R.u.m.
2xCD Alkehol 20 let na tahu
2xCD 20 let na tahu
CD Alkehol Pojdme se napit
CD Pojdme se napit
CD Alkehol Odpocivej v pokoji ...
CD Odpocivej v
pokoji ...
CD Alkehol Na zdravi
CD Na zdravi

»
Najnovšie videá
Najnovšie videá

Alkehol - Zmatnej

Alkehol - Zmatnej, Masters of Rock 201

ALKEHOL- Zmatnej HELL party.wmv

Alkehol - Zmatnej

Alkehol - (Zmatnej, Lejboj,

Alkehol - Zmatnej (cover by Adam Langr
»
Najnavštevovanejšie piesne
Najnavštevovanejšie piesne
V Bumbaru solo - taby

Travičko zelená - taby

Radek - akordy a text

Buráky - akordy a text

Ruty šuty - akordy a text

Pivo dělá hezká těla - akordy a text

Zmaštěnej - taby

Non stop - akordy a text

ŽIvot je krátkej - akordy a text

Blondýna - akordy a text

O chlastu (Podstatně lépe) - akordy a text

Pijeme s láskou - akordy

Alkohol - akordy

Alkehol - akordy a text

Černý muž - akordy a text

Alkohol - akordy a text

Piju jako duha - akordy a text

Hospodo nalejvej - akordy a text

Až se vrátím (100% dobře) - akordy a text

Travičko zelená - akordy a text

viac




home | interpreti | register piesní | cd & dvd shop | pripomienky/nápady | kontakt | ochrana údajov | inzercia

TOPlist