Kabát

piesne (537)

  texty (262) / preklady (0)
  akordy (174) / taby (243)
  noty (0) / slideshow (0)

články (317)
fotogaléria
diskusia
videá
diskografia
v obchode
odkazy
koncerty
sťahuj



pridaj vlastný článok

Kabát:
Skupina Kabat na Topfeste! - ... - livemusic.sk


Kabát:
ROCK POD KAMEŇOM PODPORUJE ČESKO-SLOVENSKÚ ROCKOVÚ SCÉNU - Kompletný line-up nabitý svetovými rockermi s výbornou muzikou uzatvárajú zoskupenia rock... - P.Dráb


Accept:
Report z Metalfest Open Air 2016 v Plzni - Pamatujete na rok 2010, kdy se Metalfest Open Air konal poprvé? Tenkrát byl součástí sé... - rockmag.cz


Kabát:
Kabát prý prodal nejvíce desek, cenu na Andělech ale nevyhraje - Kabát prý prodal nejvíce desek, cenu na Andělech ale nevyhraje Nové desky pro 14. tý... - musicserver.cz


Adele:
Pětadvacátý ročník hudebních cen Anděl zná své výherce - Pětadvacátý ročník hudebních cen Anděl zná své výherce Video: Slza v novém klipu k p... - musicserver.cz


Kabát:
Kabát tvrdí, že je nespravedlivě vyřazen z boje o nejprodávanější album - Skupina Kabát tvrdí, že byla vyřazena z boje o nejprodávanější album loňského roku. Stalo... - novinky.cz


Kabát:
Kabát vyhlásil bojkot cenám Anděl! Podle rockerů jsou výsledky zmanipulované! - Skupina Kabát letošní ceny Anděl bude bojkotovat. Podle ní jsou výsledky zmanipulované. ... - blesk.cz


Kabát:
Spokojený rocker Pepa Vojtek: Vyvedl těhotnou manželku na nákupy - Šťastný rocker Pepa Vojtek vyvedl těhotnou manželku. Pepa Vojtek s manželkou Jovankou vy... - blesk.cz


Chinaski:
Hudobníci budú na TOPFEST-e skladať rockovú maturitu. V porote sú aj Zuzana
Smatanová, či Polemic!
- Published by MUSIC ZONE on 24. marca 2016 | Komentáre vypnuté na Hudobníci budú na TOPFES... - music-zone.eu


Kabát:
Na 13-tom ročníku festivalu TOPFEST to roztočia kapely Kabát, Puddle of Mudd a
UK Subs!
- ... - livemusic.sk


 

Kabát

Fanúšikov: 178



A B C Č D E F G H CH I J K L Ľ M N O P Q R S Š T U V W X Y Z Ž



ako:
Kabát - Corrida
Kabát - Corrida

tlač

edituj
Poznámka: - full version

Pesničku videlo 10795 návštevníkov.

Kvalita tabov :
Hodnotilo ľudí: 2 ohodnoť aj ty
Prispievateľ:

Black
  *** Autor textu: Black *** Autor hudby: Kabát
Intro
E// ----0--1-0---0---------1-0---0------0-1-0---0----
B// --0--------3---0-----0-----3------0-------3----0-
G// -------------------------------------------------
D// -------------------------------------------------
A// -------------------------------------------------
E// -------------------------------------------------

před sloka 2x
E// --------------------------------------------------
B// --------------------------------------------------
G// ------5---2---------------------------------------
D// --2---5---2---------------------------------------
A// --2---3---0---------------------------------------
E// --0-----------------------------------------------

sloka: 2x
E// --------------------------------------------------
B// --5-----------------------------------------------
G// --4---5---2---------------------------------------
D// --2---5---2---------------------------------------
A// ------3---0---------------------------------------
E// --------------------------------------------------

stále sloka (holky jak růže..- děláte prohmaty)
E// ------------------------------------------------------
B// ------------------------------------------------------
G// ------------------------------9-----------------------
D// --xxxxxxxxx-10-xxxxxx-7-xxxxx-9-xxxxxxxxx-10-xxxxxx-7-
A// --xxxxxxxxx-10-xxxxxx-7-xxxxx-7-xxxxxxxxx-10-xxxxxx-7-
E// --xxxxxxxxx-8--xxxxxx-5-xxxxx---xxxxxxxxx-8--xxxxxx-5-

sloka pokračuje 2x před refrén
E// --------------------- -----
B// --5------------------ -----
G// --4---5---2---------- --7--
D// --2---5---2---------- --7--
A// ------3---0---------- --5--
E// --------------------- -----

refrén: 2x
E// ------------------------
B// ------------------------
G// ------5---------------5-
D// --2---5---7---5---3---5-
A// --2---3---7---5---3---3-
E// --0-------5---3---1-----

intro
sloka prohmaty
pokračivání sloky
před refrén
refrén
konec refrénu + sólo (tlumeně 8x)
E// ------------------------------------------
B// ------------------------------------------
G// --------------9-10-9----9---9-10-9-----9-
D// --2---------9--------12---9---------12----
A// --2---------------------------------------
E// --0---------------------------------------

refrén
E// ------------------------
B// --5---------------------
G// --4---5---2-----------5- poté pokračuje refrén normálně
D// --2---5---2---5---3---5-
A// ------3---0---5---3---3-
E// --------------3---1-----

intro

 
»
Tvoje obľúbené položky
Tvoje obľúbené položky
»
Nové albumy interpreta
Nové albumy interpreta
4xDVD Kabat 2013-2015 live vypich 2014 + o2 arena [3dvd+cd]
4xDVD 2013-2015 live
vypich 2014 + o2
arena [3dvd+cd]
4xCD Kabat Original albums 4cd vol.1 [mjm,dttz,colorado,zpt]
4xCD Original albums
4cd vol.1
[mjm,dttz,colora
do,zpt]
3xVINYL Kabat Suma sumarum [vinyl]
3xVINYL Suma sumarum
[vinyl]
CD Kabát Do pekla do nebe
CD Do pekla do nebe
3xCD+DVD Kabat Suma sumarum 2013 remastered
3xCD+DVD Suma sumarum
2013 remastered
2xCD Kabat Banditi di praga turne 2011
2xCD Banditi di praga
turne 2011

»
Najnovšie videá
Najnovšie videá

KABÁT-Corrida (celé album)

Kabat Corrida 2007 Koncert Full

Kabát- Corrida, Vypich 2009

Kabát - Corrida

Kabát-Corrida live(2006)

Kabát - Corrida
»
Najnavštevovanejšie piesne
Najnavštevovanejšie piesne
Malá dáma - akordy a text

Houby magický - akordy a text

Pohoda - akordy a text

Western Boogie - akordy

Kdoví jestli - akordy a text

Burlaci - akordy a text

Brousíme nože - akordy a text

Corrida - akordy a text

Malá Dáma ver.2 - akordy a text

Schody - akordy a text

viac




home | interpreti | register piesní | cd & dvd shop | pripomienky/nápady | kontakt | ochrana údajov | inzercia
Copyright © Pavol Bacigál, 2000-2017. Všetky práva vyhradené.
TOPlist