Divokej Bill

piesne (248)

  texty (129) / preklady (0)
  akordy (88) / taby (46)
  noty (0) / slideshow (0)

články (233)
fotogaléria
diskusia
videá
diskografia
v obchode
odkazy
koncerty
sťahuj



pridaj vlastný článok

Divokej Bill:
Festival Mezi ploty zve v květnu do Bohnic na koncerty Divokého Billa, PSH i Sto
zvířat
- před 15 hodinami Lenka Dusilová Lenka Dusilová | Foto: Mezi ploty Festival Mezi ploty ... - aktualne.cz


Divokej Bill:
Divokej Bill se loučí se svým hostujícím členem: zemřel Lukáš Toman - /**/ více tiscali.cz ... - IREPORT


Divokej Bill:
Obrovský smútok v kapele Divokej Bill: Jeden z jej členov - Obrovský smútok v kapele Divokej Bill: Jeden z jej členov († 40) náhle zomrel!" style="di... - cas.sk


Divokej Bill:
Slovenské akustické turné Divokého Billa štartuje tento týždeň - Slovenské akustické turné Divokého Billa štartuje tento týždeň ... - ahudba.sk


Divokej Bill:
Kapela Divokej Bill sa teší na slovenských fanúšikov a zverejňuje termíny
akustického turné
- Kapela Divokej Bill sa teší na slovenských fanúšikov a zverejňuje termíny akustického tur... - ahudba.sk


Divokej Bill:
Divokej Bill príde na Slovensko s akustickým turné - Divokej Bill príde na Slovensko s akustickým turné ... - ahudba.sk


Divokej Bill:
Divokej Bill bez proudu: v září akustické album, v listopadu turné - /**/ více tisc... - IREPORT


Divokej Bill:
Divokej Bill prožil úspěšné léto a chystá se na podzimní akustické turné s
Jelenem
- Divokej Bill prožil úspěšné léto a chystá se na podzimní akustické turné s Jelenem Vyd... - musicserver.cz


Divokej Bill:
Divokej Bill zažíva zlatú éru: České turné kompletne vypredal! - Pekelne divoké turné Divokého Billa „Možná přijde i pekelník“ sa skončilo. Šnúru devätn... - ahudba.sk


Divokej Bill:
Kapela Divokej Bill pokrstila v Bratislave jubilejný album 15 - Česká pop-rocková skupina Divokej Bill pokrstila 13. februára jubilejný album 15. Novú št...


 

Divokej Bill

Fanúšikov: 82



A B C Č D E F G H CH I J K L Ľ M N O P Q R S Š T U V W X Y Z Ž



ako:
Divokej Bill - Laboratoře Delta
Divokej Bill - Laboratoře Delta

tlač

edituj
V originále: Divokej Bill
Pesničku videlo 3488 návštevníkov.

Kvalita tabov :
Hodnotilo ľudí: 1 ohodnoť aj ty
Prispievateľ:

fear159
  *** Autor textu: ... *** Autor hudby: Fear
E---------------------------------------------------------------------------
H--10--8--10---------10--8--10---11-------------------8--8---8--13-13-11-10-
G-------------7-7--7-----------------10--10--10--9-10-----------------------
D---------------------------------------------------------------------------
A---------------------------------------------------------------------------
E---------------------------------------------------------------------------

E---------------------------------------------------------------------------
H--10--8--10---------10--8--10---11------------------8-8-8-8----------------
G-------------7-7--7----------------10--10--10--9-10----------10-9--7-------
D---------------------------------------------------------------------------
A---------------------------------------------------------------------------
E---------------------------------------------------------------------------

E--------------------------------------------------
H-----10--10-----11--10----10--10---8--10--11--13--
G--7----------7---------7--------------------------
D--------------------------------------------------
A--------------------------------------------------
E--------------------------------------------------


E------------------------------------------------------
H-----10--10-----11--10----10--10---8------------------
G--7----------7---------7--------------10---9-----7----
D---------------------------------------------10-------
A------------------------------------------------------
E------------------------------------------------------

 
»
Tvoje obľúbené položky
Tvoje obľúbené položky
»
Nové albumy interpreta
Nové albumy interpreta
3xCD Divokej Bill Platinum collection
3xCD Platinum
collection
2xCD+DVD Kryl Karel Karel kryl 70 - koncert - prazska lucern
2xCD+DVD Karel kryl 70 -
koncert -
prazska lucern
CD  Divokej Bill G2 acoustic stage - ocko
CD G2 acoustic
stage - ocko
CD Divokej Bill 15
CD 15
CD Divokej Bill Unisono (best of)
CD Unisono (best
of)
2xCD+DVD Divokej Bill Best of/unisono '2011 (cd+dvd)
2xCD+DVD Best of/unisono
'2011 (cd+dvd)

»
Najnovšie videá
Najnovšie videá

Divokej Bill-Laboratoře Delta

DIVOKEJ BILL - LABORATOŘE DELTA

Divokej Bill-Laboratoře Delta

Divokej Bill-Laboratoře Delta.MPG

Majáles 2014 Brno- Divokej Bill, Laborat

Divokej Bill 15 - TOUR 2013, Ostrava HD
»
Najnavštevovanejšie piesne
Najnavštevovanejšie piesne
Malování - akordy a text

Tsunami - akordy

Dolsin - akordy a text

Plakala - akordy a text

Pocit - akordy a text

Malování 100% - akordy

Batalion - akordy a text

Vstávej - akordy

Čmelák - akordy a text

Všema deseti - akordy a text

viac




home | interpreti | register piesní | cd & dvd shop | pripomienky/nápady | kontakt | ochrana údajov | inzercia
Copyright © Pavol Bacigál, 2000-2017. Všetky práva vyhradené.
TOPlist