Kabát

piesne (537)

  texty (262) / preklady (0)
  akordy (174) / taby (243)
  noty (0) / slideshow (0)

články (317)
fotogaléria
diskusia
videá
diskografia
v obchode
odkazy
koncerty
sťahuj



pridaj vlastný článok

Kabát:
Skupina Kabat na Topfeste! - ... - livemusic.sk


Kabát:
ROCK POD KAMEŇOM PODPORUJE ČESKO-SLOVENSKÚ ROCKOVÚ SCÉNU - Kompletný line-up nabitý svetovými rockermi s výbornou muzikou uzatvárajú zoskupenia rock... - P.Dráb


Accept:
Report z Metalfest Open Air 2016 v Plzni - Pamatujete na rok 2010, kdy se Metalfest Open Air konal poprvé? Tenkrát byl součástí sé... - rockmag.cz


Kabát:
Kabát prý prodal nejvíce desek, cenu na Andělech ale nevyhraje - Kabát prý prodal nejvíce desek, cenu na Andělech ale nevyhraje Nové desky pro 14. tý... - musicserver.cz


Adele:
Pětadvacátý ročník hudebních cen Anděl zná své výherce - Pětadvacátý ročník hudebních cen Anděl zná své výherce Video: Slza v novém klipu k p... - musicserver.cz


Kabát:
Kabát tvrdí, že je nespravedlivě vyřazen z boje o nejprodávanější album - Skupina Kabát tvrdí, že byla vyřazena z boje o nejprodávanější album loňského roku. Stalo... - novinky.cz


Kabát:
Kabát vyhlásil bojkot cenám Anděl! Podle rockerů jsou výsledky zmanipulované! - Skupina Kabát letošní ceny Anděl bude bojkotovat. Podle ní jsou výsledky zmanipulované. ... - blesk.cz


Kabát:
Spokojený rocker Pepa Vojtek: Vyvedl těhotnou manželku na nákupy - Šťastný rocker Pepa Vojtek vyvedl těhotnou manželku. Pepa Vojtek s manželkou Jovankou vy... - blesk.cz


Chinaski:
Hudobníci budú na TOPFEST-e skladať rockovú maturitu. V porote sú aj Zuzana
Smatanová, či Polemic!
- Published by MUSIC ZONE on 24. marca 2016 | Komentáre vypnuté na Hudobníci budú na TOPFES... - music-zone.eu


Kabát:
Na 13-tom ročníku festivalu TOPFEST to roztočia kapely Kabát, Puddle of Mudd a
UK Subs!
- ... - livemusic.sk


 

Kabát

Fanúšikov: 178



A B C Č D E F G H CH I J K L Ľ M N O P Q R S Š T U V W X Y Z Ž



ako:
Kabát - Kdo ví jestli full version
Kabát - Kdo ví jestli full version

tlač

edituj
Pesničku videlo 12595 návštevníkov.

Kvalita tabov :
Hodnotilo ľudí: 1 ohodnoť aj ty
Prispievateľ:

Black
  *** Autor textu: Black
intro 1: Xkrát PM:
E// ------------------------------------
B// --0-0-7-0-0-7-0-7-0-0-7-0-0-7-0-5-7-
G// ------------------------------------
D// ------------------------------------
A// ------------------------------------
E// ------------------------------------

intro 2 (no a co vítr...): 6x
E// ------------------
B// ------------------
G// ------7--8--7-----
D// ----9---x--x--x-9-
A// --(9)-------------
E// ------------------

mezihra:
E// ------------------
B// ------------------
G// ------9-8---------
D// --9-9-9-8-9-7-8---
A// --9-9-7-6-9-7-8---
E// --7-7-----7-5.6---

sloka:
E// --------------------
B// --------------------
G// --4-----------------
D// --4----2-----6-4--2-
A// --2----2-----6-4--2-
E// -------0-----4-2--0-

mezihra

sloka

mezihra

intro 2

mezihra

mezihra 2 - já musim jít, najdu ji sám...
E// --------------------
B// --------------------
G// ------4-------------
D// --5---4---5---4-----
A// --5---2---5---4-----
E// --3-------3---2-----

intro 1

sloka

vyhrávka na konci sloky
E// --------------------
B// --------------------
G// --------------------
D// --9~---7-8-9~-------
A// --------------------
E// --------------------

sloka

druhá vyhrávka na konci sloky
E// --------------------
B// --------------------
G// ------7-8-7---------
D// --9-9-------9-------
A// --------------------
E// --------------------

 
»
Tvoje obľúbené položky
Tvoje obľúbené položky
»
Nové albumy interpreta
Nové albumy interpreta
4xDVD Kabat 2013-2015 live vypich 2014 + o2 arena [3dvd+cd]
4xDVD 2013-2015 live
vypich 2014 + o2
arena [3dvd+cd]
4xCD Kabat Original albums 4cd vol.1 [mjm,dttz,colorado,zpt]
4xCD Original albums
4cd vol.1
[mjm,dttz,colora
do,zpt]
3xVINYL Kabat Suma sumarum [vinyl]
3xVINYL Suma sumarum
[vinyl]
CD Kabát Do pekla do nebe
CD Do pekla do nebe
3xCD+DVD Kabat Suma sumarum 2013 remastered
3xCD+DVD Suma sumarum
2013 remastered
2xCD Kabat Banditi di praga turne 2011
2xCD Banditi di praga
turne 2011

»
Najnovšie videá
Najnovšie videá

Kabát kdo ví jestli

Kabát - Kdo ví jestli

Kabát - Kdoví jestli

KABÁT - Kdoví jestli [official video]

Kabát - Kdo ví jestli [Banditi di praga

Kabát-Kdo ví jestli (lyrics)
»
Najnavštevovanejšie piesne
Najnavštevovanejšie piesne
Malá dáma - akordy a text

Houby magický - akordy a text

Pohoda - akordy a text

Western Boogie - akordy

Kdoví jestli - akordy a text

Burlaci - akordy a text

Brousíme nože - akordy a text

Corrida - akordy a text

Malá Dáma ver.2 - akordy a text

Schody - akordy a text

viac




home | interpreti | register piesní | cd & dvd shop | pripomienky/nápady | kontakt | ochrana údajov | inzercia
Copyright © Pavol Bacigál, 2000-2017. Všetky práva vyhradené.
TOPlist