Láďa Krížek

piesne (25)

  texty (22) / preklady (0)
  akordy (7) / taby (1)
  noty (0) / slideshow (0)

články (9)
fotogaléria
diskusia
videá
diskografia
v obchode
odkazy
koncerty
sťahuj



pridaj vlastný článok

Citron:
Rebelie rebelů úspěšně dobývá srdce rockových fanoušků - Radim Pařízek, Láďa Křížek, Tanja a další čili jarní turné kapely Citron zač... - denik.cz


Citron:
Citron s Láďou Křížkem odstartoval turné v Kadani - Vydáno před 8 hodinami Facebook319 Twitter0 Google+0 Legendární rocková kapela ... - ireport.cz


Láďa Krížek:
Co je to za kuličku? Takhle dnes vypadá někdejší idol dívčích srdcí
„Zlatej chlapec“ Láďa Křížek
- super.cz


Alkehol:
Album Rockové Vánoce obsahuje drsnější koledy - novinky.cz


Alice:
Legendy v Plzni - irockshock.net


Alice:
Česko-slovenské legendy v Plzni - ireport.cz


Alkehol:
Hudobné festivalu majú svoje miesto aj v Žilinskom kraji - Hudobné festivalu majú svoje miesto aj v Žilinskom kraji Žilina 10. mája (TASR) ...


Alkehol:
Hudobné festivaly v Žilinskom kraji - Hudobné festivaly v Žilinskom kraji Žilina 10. mája (TASR) – Podobne ako v ostat...


Lucie Bílá:
Ostrava slavila Anděly se svým Kryštofem - musicserver.cz


Arakain:
Brichta: Vím, co 20 let tají Bílá. Chlastala. Byla tlustá. Byl to cvok - Brichta: Vím, co 20 let tají Bílá. Chlastala. Byla tlustá. Byl to cvok Sex s Kří... - blesk.cz


 

Láďa Krížek

Fanúšikov: 1



A B C Č D E F G H CH I J K L Ľ M N O P Q R S Š T U V W X Y Z Ž



ako:
Láďa Krížek - Den za dnem
Láďa Krížek - Den za dnem

tlač

edituj
Pesničku videlo 3850 návštevníkov.

Kvalita tabov : bez hodnotenia
Hodnotilo ľudí: 0 ohodnoť aj ty
Prispievateľ:

Chosse
  *** Autor textu: Ladislav K?ížek
Den za dnem lásky se loučí
zustavají za tebou.
Den za dnem tvá pouť nekončí
mlhu más před sebou.

Spěch a čas ty musíš jít dál
čeká te další sál
víš že zas večer se rozdáš
patříš jim na sto-krát

Den za dnem lásky se loučí
Den za dnem zase ponechávaš
Den za dnem mesta nepočítaš
Den za dnem táhnete dál

Solo

Spěch a ston další den končí
hotel šel dávno spát
smích a stes usínaš s nadejí
přiznej jsi máš to rád

Den za dnem lásky se loučí
Den za dnem zase ponechávaš
Den za dnem mesta nepočítaš
Den za dnem táhnete dál

solo

Den za dnem lásky se loučí
Den za dnem zase ponechávaš
Den za dnem mesta nepočítaš
Den za dnem táhnete dál

solo

Den za dnem lásky se loučí
Den za dnem zase ponechávaš
Den za dnem mesta nepočítaš
Den za dnem táhnete dál

táhnete dál
mesta nepočítaš
táhnete dál

předehra:

Ami F G
e-----------------------------------------------------------1---3---------e
B-----1-------0-------1-------0-------1-------0-------1-----1---3---------B
G---2---2---2---2---2---2---2---2---2---2---2---2---2---2---2---4---------G
D-----------------------------------------------------------3---5---------D
A-0-------0-------0-------0-------0-------0-------0---------3---5---------A
E-----------------------------------------------------------1---3---------E

zpěv
Ami F G
e-----------------------------------------------------------1---3---------e
B-----1-------0-------1-------0-------1-------0-------1-----1---3---------B
G---2---2---2---2---2---2---2---2---2---2---2---2---2---2---2---4---------G
D-----------------------------------------------------------3---5---------D
A-0-------0-------0-------0-------0-------0-------0---------3---5---------A
E-----------------------------------------------------------1---3---------E


Ami F G E
e---------------------------------------------------0---------------------e
B-----1-------0-------1-------0-------1-------3-----0---------------------B
G---2---2---2---2---2---2---2---2---2---2---4---2---1---------------------G
D---------------------------------3-------5---------2---------------------D
A-0-------0-------0-------0-------------------------2---------------------A
E---------------------------------------------------0---------------------E

1. kytara + basa
2. kytara vyhravka

A F G
e-------------------------------------------------------------------------e
B-------------------------------------------------------------------------B
G-----4/5\4------------4/5\4--------4/5\4---------------------------------G
D--7----------7-5---7----------7-5---------7-5-----3---5------------------D
A----------------------------------------------5---3---5------------------A
E--------------------------------------------------1---3------------------E

sloka:
F G
e-------------------------------------------------------------------------e
B-------------------------------------------------------------------------B
G-------------------------------------------------------------------------G
D------------------------------------------------------------3--5---------D
A------------------------------------------------------------3--5---------A
E--5-0-3-5-3---0-3----5-0-3-5-3---0-3----5-0-3-5-3---0-3-5---1--3---------E

F G E
e-------------------------------------------------------------------------e
B-------------------------------------------------------------------------B
G-------------------------------------------------------------------------G
D---------------------------------------3--5--2---------------------------D
A---------------------------5---5-3-2---3--5--2---------------------------A
E---5-0-3-5-3---0-3---5-0-3-------------1--3--0--------------------------E

ref: C,F,G
C,G,A

solo:

e-------------------------------------------------------------------------e
B-----------------------------------8-------------------------------------B
G--------7-9--------7-9b10b9-7----7--9-----------9b10b9-7-----------------G
D-----/10---------10-----------10-----10----7-10--------------------------D
A-------------------------------------------------------------------------A
E-------------------------------------------------------------------------E

e-------------------------------------------------------------------------e
B-------------------------------8-----------------------------------------B
G----7-9--------7-9b10b9-7----7--9-----------9b10b9-7----7-------5--7--9--G
D--10---------10-----------10-----10----7-10-------- 10----7--9-----------D
A-------------------------------------------------------------------------A
E-------------------------------------------------------------------------E
doprovod po solo: C,F,C,G,A,F,C,G
C,F,C,G,A,F,C,G,F

konec

e-------------------------------------------------------------------------e
B-------------------------------------------------------------------------B
G-------------------------------------------------------------------------G
D-------------------------------------------------------------------------D
A--------------5-3--------------------------------------------------------A
E--3-5-6---5-3------------------------------------------------------------E



 
»
Tvoje obľúbené položky
Tvoje obľúbené položky
»
Nové albumy interpreta
Nové albumy interpreta
6

»
Najnovšie videá
Najnovšie videá

Ladislav Kek - Den za dnem

Ladislav Kek - Den za dnem

pedhodov - Ladislav Kek - Den za dn

La Kek - Posledn den jsi m Top HQ


La Kek a Reddy Kroc - Posledn den
»
Najnavštevovanejšie piesne
Najnavštevovanejšie piesne



home | interpreti | register piesní | cd & dvd shop | pripomienky/nápady | kontakt | ochrana údajov | inzercia

TOPlist