Katapult

piesne (178)

  texty (129) / preklady (1)
  akordy (81) / taby (26)
  noty (1) / slideshow (0)

články (56)
fotogaléria
diskusia
videá
diskografia
v obchode
odkazy
koncerty
sťahuj



pridaj vlastný článok

Katapult:
Katapult ohlásili nový album - 23. srpna 2016 skupina Katapult ohlásila na svém Facebooku termín vydání nového alba. Al...


Katapult:
Fotoreport - Katapult v Nitre - Katapult, jednoducho, Katapult, tak táto skupina nás všetkých zase po mnohých rokoch, ako... - Milan Gróf


Ac/dc:
KATAPULT oslavuje a vydáva CD - Tento rok je pre Oldu Říhu rokom jubilejným: oslávi 65.narodeniny a uplynie 50 rokov , ... - EMI Music


Katapult:
Nová alba: Katapult a Sade naživo, John Mayer možná naposledy - novinky.cz


Katapult:
Katapult zahrál na Nové scéně a představil DVD Rock života - ceskenoviny.cz


Katapult:
Anketa: Katapult je pořád svůj. Bohužel - centrum.cz


Katapult:
Olda Říha: Uvědomil jsem si, že vlastně začínám znovu, od nuly - denik.cz


Katapult:
Milovaný i nenáviděný Katapult zahraje v Národním divadle - ceskenoviny.cz


Katapult:
Katapult to dá lidem tvrdě do huby na Nové scéně - centrum.cz


Katapult:
Katapult představí dvě úplně nové písničky - denik.cz


 

Katapult

Fanúšikov: 29



A B C Č D E F G H CH I J K L Ľ M N O P Q R S Š T U V W X Y Z Ž



ako:
Katapult - Vestonicka venuse
Katapult - Vestonicka venuse

tlač

edituj
Pesničku videlo 3495 návštevníkov.

Kvalita tabov : bez hodnotenia
Hodnotilo ľudí: 0 ohodnoť aj ty
Prispievateľ:

IMI
Autor hudby: Katapult
e---------------------------------
h---------------------------------
G---------------------------------
D--------------3--5-5/7\5-3-3-5---
A---5--5--3-5--1--3-3/5\3-1-3-5---
E---3--3--1-3---------------1-3---

e---------------------------------
h---------------------------------
G---------------------------3-----
D--------------3--5-5/7\5-3-3-3---
A---5--5--3-5--1--3-3/5\3-1-1-3---
E---3--3--1-3-----------------1--- intro, cele 1x

e--------------------------------------------------------
h--------------------------------------------------------
G--------------------------------------------------3-----
D---/5-7-5-5-7-5-5-7-5-5-5-7-5-5-7-5-5-5-7-5-5-7-5-1-3---
A---/3-3-3-3-3-3-3-3-3-3-3-3-3-3-3-3-3-3-3-3-3-3-3---1---
E--------------------------------------------------------

e--------------------------------------------------------
h--------------------------------------------------------
G--------------------------------------------------3-4---
D---/5-7-5-5-7-5-5-7-5-5-5-7-5-5-7-5-5-5-7-5-5-7-5-1-2---
A---/3-3-3-3-3-3-3-3-3-3-3-3-3-3-3-3-3-3-3-3-3-3-3-------
E--------------------------------------------------------

e----------------------------------------------------
h----------------------------------------------------
G----------------------------------------------------
D---3-3-1-3-1----------------1--3-3-1-3-1------------
A-------------3--1-3-1---1-3--------------3--1-3-1---
E----------------------3-----------------------------

e----------------------------------------------------
h----------------------------------------------------
G----------------------------------------------------
D---3-3-1-3-1----------------1--3-3-1-3-1------1-----
A-------------3--1-3-1---1-3--------------3--1---1---
E----------------------3-----------------------------

potom pokracuje zase rockandrollik z Cecka, robil som to len tak podla ucha ale malo by to byt OK, tam kde su 2 pomlcky ma byt akoze taka mikropauza

 
»
Tvoje obľúbené položky
Tvoje obľúbené položky
»
Nové albumy interpreta
Nové albumy interpreta
VINYL Katapult Kladivo na zivot [vinyl]
VINYL Kladivo na zivot
[vinyl]
2xDVD Katapult Pohadka tisice a jedne noci
2xDVD Pohadka tisice a
jedne noci
CD Katapult 50 let hraju rock
CD 50 let hraju
rock
CD  Katapult Made in rock'n'roll - live futurum praha
CD Made in
rock'n'roll -
live futurum
praha
CD Katapult 2010 Radosti zivota
CD Radosti zivota
6xCD Katapult 6cd box
6xCD 6cd box

»
Najnovšie videá
Najnovšie videá

Katapult - Věstonická Venuše

Venus of Dolní Věstonice Movie & Slidesh

Věstonická venuše
»
Najnavštevovanejšie piesne
Najnavštevovanejšie piesne
Hlupák váhá - akordy a text

Hlupák váhá - akordy a text

Blues - spravne - akordy a text

Vojín XY - akordy a text

- akordy a text

Katapult - akordy a text

Vojín XY-ORIGINÁL - akordy a text

Někdy příště - akordy a text

Blues - akordy a text

Já nesnídám sám - akordy a text

viac




home | interpreti | register piesní | cd & dvd shop | pripomienky/nápady | kontakt | ochrana údajov | inzercia
Copyright © Pavol Bacigál, 2000-2017. Všetky práva vyhradené.
TOPlist