Katapult

piesne (178)

  texty (129) / preklady (1)
  akordy (81) / taby (26)
  noty (1) / slideshow (0)

články (56)
fotogaléria
diskusia
videá
diskografia
v obchode
odkazy
koncerty
sťahuj



pridaj vlastný článok

Katapult:
Katapult ohlásili nový album - 23. srpna 2016 skupina Katapult ohlásila na svém Facebooku termín vydání nového alba. Al...


Katapult:
Fotoreport - Katapult v Nitre - Katapult, jednoducho, Katapult, tak táto skupina nás všetkých zase po mnohých rokoch, ako... - Milan Gróf


Ac/dc:
KATAPULT oslavuje a vydáva CD - Tento rok je pre Oldu Říhu rokom jubilejným: oslávi 65.narodeniny a uplynie 50 rokov , ... - EMI Music


Katapult:
Nová alba: Katapult a Sade naživo, John Mayer možná naposledy - novinky.cz


Katapult:
Katapult zahrál na Nové scéně a představil DVD Rock života - ceskenoviny.cz


Katapult:
Anketa: Katapult je pořád svůj. Bohužel - centrum.cz


Katapult:
Olda Říha: Uvědomil jsem si, že vlastně začínám znovu, od nuly - denik.cz


Katapult:
Milovaný i nenáviděný Katapult zahraje v Národním divadle - ceskenoviny.cz


Katapult:
Katapult to dá lidem tvrdě do huby na Nové scéně - centrum.cz


Katapult:
Katapult představí dvě úplně nové písničky - denik.cz


 

Katapult

Fanúšikov: 29



A B C Č D E F G H CH I J K L Ľ M N O P Q R S Š T U V W X Y Z Ž



ako:
Katapult - Znam podobu tvou pravou
Katapult - Znam podobu tvou pravou

tlač

edituj
Rok vzniku: 1986
Pesničku videlo 3526 návštevníkov.

Kvalita tabov : bez hodnotenia
Hodnotilo ľudí: 0 ohodnoť aj ty
Prispievateľ:

IMI
Autor hudby: Katapult
e------------------------------------------------------
h------------------------------------------------------
G-------7-5--4-5-4-2------------7-5---4-5-4-2----------
D-------7-5--4-5-4-2------------7-5---4-5-4-2----------
A---0-0-5-3--2-3-2-0--0-2-3-0-0-5-3---2-3-2-0--0-2-3---
E------------------------------------------------------

e-------------------------------------------------------
h-------------------------------------------------------
G-------7-5--4-5-4-2------------7-5--4-5-4-2--------2---
D-------7-5--4-5-4-2------------7-5--4-5-4-2--------2---
A---0-0-5-3--2-3-2-0--0-2-3-0-0-5-3--2-3-2-0--0-2-3-0---
E-------------------------------------------------------

e------------------------------------------------------------
h------------------------------------------------------------
G--------------------------------------------7-8-7-8-7-8-2---
D--------------------------------------------7-8-7-8-7-8-2---
A---0-0-0-0-0-3b-0-0-0-0-0-0-5b-0-0-3b-0-0-0-5-6-5-6-5-6-0---
E------------------------------------------------------------

e---------------------------------------------------------------
h---------------------------------------------------------------
G--------------------------------------------7-8-7-8-7-8-2--2---
D--------------------------------------------7-8-7-8-7-8-2--2---
A---0-0-0-0-0-3b-0-0-0-0-0-0-5b-0-0-3b-0-0-0-5-6-5-6-5-6-0--0---
E---------------------------------------------------------------

e----------------------------------------------------
h----------------------------------------------------
G---2------------5------------7-5---4-5-4-2----------
D---2------------5-7-5-7------7-5---4-5-4-2----------
A---0--0-0-0-0-0-3-7-5-7------5-3---2-3-2-0--0-2-3---
E------------------5-3-5--5-5------------------------ toto cele 3x

e--------------------------------------------------------------
h--------------------------------------------------------------
G---2------------5------------7------------9-X-X-9-X-X-9-9-9---
D---2------------5------------7------------9-X-X-9-X-X-9-9-9---
A---0--0-0-0-0-0-3--0-0-0-0-0-5--0-0-0-0-0-7-7-7-7-7-7-7-7-7---
E--------------------------------------------------------------

potom to ide dookola odznova, robil som to podla ucha ale malo by to byt OK

 
»
Tvoje obľúbené položky
Tvoje obľúbené položky
»
Nové albumy interpreta
Nové albumy interpreta
VINYL Katapult Kladivo na zivot [vinyl]
VINYL Kladivo na zivot
[vinyl]
2xDVD Katapult Pohadka tisice a jedne noci
2xDVD Pohadka tisice a
jedne noci
CD Katapult 50 let hraju rock
CD 50 let hraju
rock
CD  Katapult Made in rock'n'roll - live futurum praha
CD Made in
rock'n'roll -
live futurum
praha
CD Katapult 2010 Radosti zivota
CD Radosti zivota
6xCD Katapult 6cd box
6xCD 6cd box

»
Najnovšie videá
Najnovšie videá

Junior - Znám už píseň tvou [1971 Vinyl

Tvou vůni stále znám

Katapult-13 Komnata

Videoklip Katapult - KDYŽ (Srdce puls)

Katapult - Živýho mě nedostanou

katapult Všechno nebo nic
»
Najnavštevovanejšie piesne
Najnavštevovanejšie piesne
Hlupák váhá - akordy a text

Hlupák váhá - akordy a text

Blues - spravne - akordy a text

Vojín XY - akordy a text

- akordy a text

Katapult - akordy a text

Vojín XY-ORIGINÁL - akordy a text

Někdy příště - akordy a text

Já nesnídám sám - akordy a text

Hlupák váhá - pro sólovou kytaru - taby

viac




home | interpreti | register piesní | cd & dvd shop | pripomienky/nápady | kontakt | ochrana údajov | inzercia
Copyright © Pavol Bacigál, 2000-2017. Všetky práva vyhradené.
TOPlist