Kamelot

piesne (233)

  texty (216) / preklady (1)
  akordy (200) / taby (6)
  noty (2) / slideshow (0)

články (64)
fotogaléria
diskusia
videá
diskografia
v obchode
odkazy
koncerty
sťahuj



pridaj vlastný článok

Kamelot:
Jeseň v Bratislave bude patriť metalistom: Kamelot, Delain, Amaranthe, Amon
Amarth aj Never Say Die tour!
- ... - livemusic.sk


Bratři Ebenové:
Žánrové ceny Anděl 2015 rozdány, v kategorii Folk & country zvítězila Epydemye! - Novinky Včera jste si jistě nenechali ujít na ČT Art přímý přenos z udělování žánrov... - folktime.cz


Roman Horký:
Kamelot pokrstili novinku Babí léto - Nový autorský album Romana Horkého je v poradí dvadsiatym piatym v jeho diskografii. Kaž... - Warner Music


Roman Horký:
Roman Horký interview: Život člověka je jako role toaletního papíru - 23. 09. 2015 | redakce Album Babí léto je sice podepsáno také skupinou Kamelot, ale v... - ireport.cz


Kamelot:
Folkoví Kamelot rekapitulují kariéru v bohaté kompilaci 'Platinum Collection' - Folkoví Kamelot rekapitulují kariéru v bohaté kompilaci "Platinum Collection" Vydáno: ... - musicserver.cz


Cigánski Diabli:
Dnes sa začína šestnásty ročník Lodenice - Dnes sa začína šestnásty ročník Lodenice Festival / do nedele, Piešťany, Sĺňava  Už sa ... - sme.sk


Kamelot:
Kamelot vystúpi 22. novembra v bratislavskom MMC - V hlavnom meste Slovenska sa po prvý raz ukáže s novým spevákom Tommym Karevikom BRATISL...


Bukasový Masív:
Začal festival Lodenica - Včera sa večerným koncertom skupín Slniečko, Neznámi s američanom Willie Jonesom a Kamelo... - lodenica.sk


Edguy:
Letošní Masters Of Rock přitáhne kromě Nightwish také Edguy, Kamelot nebo Exodus - musicserver.cz


Kamelot:
Toulky na koních, ale i korupce a buddhismus - musicserver.cz


 

Kamelot

Fanúšikov: 20



A B C Č D E F G H CH I J K L Ľ M N O P Q R S Š T U V W X Y Z Ž



ako:
Kamelot - Slib
Kamelot - Slib

tlač

edituj
Pesničku videlo 9616 návštevníkov.

Kvalita tabov : bez hodnotenia
Hodnotilo ľudí: 0 ohodnoť aj ty
Prispievateľ:

Jirka
  *** Autor textu: horký *** Autor hudby: horký
Kamelot – slib   solo v Emi  (V původní verzi – Bůček – je to přechod do Fismi, tedy o dvě pole vejš, na poslední sloku a refrén, verze s czákovou je v této tónině -přechod z dni do emi – alezase se to hraje trochu jinak, myslím podle klipu, že i v jiné poloze



e------------------------------------------7--7------7-------
h--------7--8--10--8--7-----------7--------------10----------
G-----8------------------9--8--9-----------------------------
D--9---------------------------------9-----------------------
A------------------------------------------------------------
E------------------------------------------------------------


e---7---7---------7---8--------------------------------------
h------------10------------10-------10----10---8----10-------
G--------------------------------------------------------7---
D------------------------------------------------------------
A------------------------------------------------------------
E------------------------------------------------------------



e-------8--7--------------------------------------------------
h-------------8---------------------------------8------------8
G---7------------7--7--7--7--5--4--5----5--4--4-----4--3--3---
D------------------------------------------------------------
A------------------------------------------------------------
E------------------------------------------------------------



e------------------------------------------------------------
h--10--7-----------7--8--10--8--7------------7--------------
G---------------8-------------------9--8--9---------------
D------------9-----------------------------------9-------------
A------------------------------------------------------------
E------------------------------------------------------------

 
»
Tvoje obľúbené položky
Tvoje obľúbené položky
»
Nové albumy interpreta
Nové albumy interpreta
CD Kamelot Haven
CD Haven
2xCD Kamelot Where i reign - very best of the noise years
2xCD Where i reign -
very best of the
noise years
CD Kamelot Vyznani
CD Vyznani
3xCD Kamelot Platinum collection
3xCD Platinum
collection
8xCD Kamelot Od a do z
8xCD Od a do z
CD Kamelot Proti proudu
CD Proti proudu

»
Najnovšie videá
Najnovšie videá

Kamelot - Slib

Kamelot - Slib

Slib - Kamelot cover

Kamelot - Slib

Kamelot / Roman Horký - Slib

Kamelot - Slib (cover)
»
Najnavštevovanejšie piesne
Najnavštevovanejšie piesne
Zachraňte koně - akordy a text

Babí léto - akordy

Slib - akordy a text

Zrození hvězd - akordy a text

Čas rozchodů - akordy a text

Anděl - akordy

Babí léto - akordy

Dobří holubi se vracejí (správně) - akordy a text

Když zamrzá řeka - akordy a text

Heidi - děvčátko z hor - akordy a text

viac




home | interpreti | register piesní | cd & dvd shop | pripomienky/nápady | kontakt | ochrana údajov | inzercia
Copyright © Pavol Bacigál, 2000-2017. Všetky práva vyhradené.
TOPlist