Muerti

piesne (3)

  texty (0) / preklady (0)
  akordy (2) / taby (1)
  noty (0) / slideshow (0)

články (0)
fotogaléria
diskusia
videá
diskografia
v obchode
odkazy
koncerty
sťahuj



pridaj vlastný článok

Muerti:
Tradiční Kids and Heroes Punkrock Xmas se rozjedou hned do čtyř měst - tradiční Kids And Heroes Punkrock Xmas musí stát za to.Minulý rok se Kids and Heroes Punk... - musiczone.cz


 

Muerti

Fanúšikov: 0



A B C Č D E F G H CH I J K L Ľ M N O P Q R S Š T U V W X Y Z Ž



ako:
Muerti - Lásky a vrásky
Muerti - Lásky a vrásky

tlač

edituj
Rok vzniku: 2012
Poznámka: oposlocuháno

Pesničku videlo 3138 návštevníkov.

Kvalita tabov : bez hodnotenia
Hodnotilo ľudí: 0 ohodnoť aj ty
Prispievateľ:

Indianrohlik
  *** Autor textu: Indy *** Autor hudby: Muerti
e-------------------------------------
A-7-----7-5-----5-3-----3-5--57775----
D--7---7---6---6 --5---5--------------
G---7-7-----8-8-----5-5---------------
B-------------------------------------
E-------------------------------------

2. kytara hraje do vybrnkávání jen akordy

e-------------------------------------
A-------------------------------------
D-7-----------------------------------
G-7--------4-------9------7-----------
B-5--------4-------9------7-----------
E----------2-------7------5-----------

to celé 2x

až se to zrychlý je to:
e--------------------------------------
A-7------7-5------5-3------3-5--57775--
D--7---77---6---66---5---55------------
G---7-7------8-8------5-5--------------
B--------------------------------------
E--------------------------------------





SLOKA: s pm

D, F#, G, A
e-------------------------------------
A-------------------------------------
D-7-----------------------------------
G-7--------4-------5------7-----------
B-5--------4-------5------7-----------
E----------2-------3------5-----------

REF:
D, F#, H, A
e-------------------------------------
A-------------------------------------
D-7-----------------------------------
G-7--------4-------9------7-----------
B-5--------4-------9------7-----------
E----------2-------7------5-----------

snad jsem to oposlouchal dobře, sólo zatím není :-)

 
»
Tvoje obľúbené položky
Tvoje obľúbené položky
»
Nové albumy interpreta
Nové albumy interpreta

»
Najnovšie videá
Najnovšie videá

Muerti - Vrásky a lásky

Muerty - Vrásky a lásky

Muerti - Vrásky a lásky

Muerti-Vrásky a lásky live Matrix 16.12.

MOTUS Vrásky z lásky

VRÁSKY Z LÁSKY (2012) HD trailer
»
Najnavštevovanejšie piesne
Najnavštevovanejšie piesne



home | interpreti | register piesní | cd & dvd shop | pripomienky/nápady | kontakt | ochrana údajov | inzercia
Copyright © Pavol Bacigál, 2000-2017. Všetky práva vyhradené.
TOPlist