Ľudové [sk]

piesne (937)

  texty (842) / preklady (1)
  akordy (409) / taby (27)
  noty (6) / slideshow (0)

články (13)
fotogaléria
diskusia
videá
diskografia
v obchode
odkazy
koncerty
sťahuj



pridaj vlastný článok

Ľudové [sk]:
Recenzia - CD Ľudová veselica - Keď sa stretnú muzikanti (recenzia na CD „Ľudová veselica s Milanom Perným 1.“...


Hriňovčan (folkl. Subor):
Folklórna únia vyslovuje úprimnú sústrasť - Bratislava 4. septembra (TASR) - Folklórna únia na Slovensku vyslovuje úprimnú sústrasť r...


Kysučan (folklorny Subor):
Na festivale Pražský jarmok sa predstaví aj slovenský folklór - Bratislava 28. augusta (TASR) - Na 4. ročníku medzinárodného folklórneho festivalu Pražsk...


Ľudové [sk]:
Husľovačka v hrušovskom amfiteátri ukončila Hontiansku parádu - Hrušov 19. augusta (TASR) - Husľovačka, počas ktorej sa v amfiteátri v Hrušove predstavil...


České A Moravské Ľudové Piesne:
V Heľpe sa skončil 42. ročník Horehronských dní spevu a tanca - V Heľpe sa skončil 42. ročník Horehronských dní spevu a tanca Heľpa 24. júna (TASR...


Jožka Černý:
Zamagurské folklórne slávnosti v Červenom Kláštore - Zamagurské folklórne slávnosti v Červenom Kláštore Poprad 6. júna (TASR) - Prírod...


Detské:
Detský folklórny festival Kolovrátok - V Heľpe sa na festivale predstavili detské folklórne súbory Heľpa 27. mája (TASR...


Lúčnica:
Lúčnica sa predstaví v pondelok v bratislavskom Istropolise - Lúčnica sa predstaví v pondelok v bratislavskom Istropolise V programe budú mať diváci... - sony bmg


Ľudové [sk]:
Slezák: Som zamilovaný do celého SĽUK-u - Slezák: Som zamilovaný do celého SĽUK-u BRATISLAVA 23. september (SITA) - Predstaviteľ...


Ľudové [sk]:
Festival vo Východnej sa skončil, o rok v novom amfiteátri - bleskovky.sk


 

Ľudové [sk]

Fanúšikov: 16



A B C Č D E F G H CH I J K L Ľ M N O P Q R S Š T U V W X Y Z Ž



ako:
Ľudové [sk] - Cigánsky barón
Ľudové [sk] - Cigánsky barón

tlač

edituj
Pesničku videlo 3286 návštevníkov.

Kvalita tabov : bez hodnotenia
Hodnotilo ľudí: 0 ohodnoť aj ty
Prispievateľ:

Rebelik52
E||------------------------------------------------------------------------B||-------0----0----1----0-----------------------0----0----1----0----0---2 
G||---------------------------2----4--------------------------------------D||--0-----------------------------------------0-------------------------A||------------------------------------------------------------------------E||------------------------------------------------------------------------

---------------------------------------------------------------------------
----------------------------------------------3----3----1----0----0--------
-------2----2----4----2----0----2----------------------------------2----0--
--0-----------------------------------------------------------------------------------------------------------------------------------------------------------------------------------------------------------------------------


---------------------------------------------------------------------------------0-------------0-------------0--------0----0----0----1----0----0----2-
-----------------------------------------------------------------------------0----------------0-------------0-----------------------------------------------------------------------------------------------------------------------------------------------------------------------------------------------


---------------------------------------------------------------------------
---------------------------------------------3----3----1----0----0--------
----------2---------2-------------2---------------------------------2----0-
--0----------------0-------------0----------------------------------------
---------------------------------------------------------------------------

 
»
Tvoje obľúbené položky
Tvoje obľúbené položky

»
Najnovšie videá
Najnovšie videá

AKCENT LIVE® 2014

Smútok krásnych dievčat úprava MP ukážka

GOTT, MATUSKA - SILVESTROVSKA OPERA ukáž

Do rána je malá chvíla - zmes poliek - s

Deejay Majk na svadby,rodinne oslavy ,fi

Kriačok Ľalijovij - Korg PA600 (štýl: SK
»
Najnavštevovanejšie piesne
Najnavštevovanejšie piesne



home | interpreti | register piesní | cd & dvd shop | pripomienky/nápady | kontakt | ochrana údajov | inzercia
Copyright © Pavol Bacigál, 2000-2017. Všetky práva vyhradené.
TOPlist