Ľudové [sk]

piesne (938)

  texty (842) / preklady (1)
  akordy (410) / taby (27)
  noty (6) / slideshow (0)

články (13)
fotogaléria
diskusia
videá
diskografia
v obchode
odkazy
koncerty
sťahuj



pridaj vlastný článok

Ľudové [sk]:
Recenzia - CD Ľudová veselica - Keď sa stretnú muzikanti (recenzia na CD „Ľudová veselica s Milanom Per...


Hriňovčan (folkl. Subor):
Folklórna únia vyslovuje úprimnú sústrasť - Bratislava 4. septembra (TASR) - Folklórna únia na Slovensku vyslovuje úprimnú sústr...


Kysučan (folklorny Subor):
Na festivale Pražský jarmok sa predstaví aj slovenský folklór - Bratislava 28. augusta (TASR) - Na 4. ročníku medzinárodného folklórneho festivalu P...


Ľudové [sk]:
Husľovačka v hrušovskom amfiteátri ukončila Hontiansku parádu - Hrušov 19. augusta (TASR) - Husľovačka, počas ktorej sa v amfiteátri v Hrušove pred...


České A Moravské Ľudové Piesne:
V Heľpe sa skončil 42. ročník Horehronských dní spevu a tanca - V Heľpe sa skončil 42. ročník Horehronských dní spevu a tanca Heľpa 24. jú...


Jožka Černý:
Zamagurské folklórne slávnosti v Červenom Kláštore - Zamagurské folklórne slávnosti v Červenom Kláštore Poprad 6. júna (TASR) -...


Detské:
Detský folklórny festival Kolovrátok - V Heľpe sa na festivale predstavili detské folklórne súbory Heľpa 27. mája...


Lúčnica:
Lúčnica sa predstaví v pondelok v bratislavskom Istropolise - Lúčnica sa predstaví v pondelok v bratislavskom Istropolise V programe budú mať d... - sony bmg


Ľudové [sk]:
Slezák: Som zamilovaný do celého SĽUK-u - Slezák: Som zamilovaný do celého SĽUK-u BRATISLAVA 23. september (SITA) - Predstav...


Ľudové [sk]:
Festival vo Východnej sa skončil, o rok v novom amfiteátri - bleskovky.sk


 

Ľudové [sk]

Fanúšikov: 16



A B C Č D E F G H CH I J K L Ľ M N O P Q R S Š T U V W X Y Z Ž



ako:
Ľudové [sk] - Nebudem sa ženiť ešte
Ľudové [sk] - Nebudem sa ženiť ešte

tlač

edituj
Pesničku videlo 2548 návštevníkov.

Kvalita tabov : bez hodnotenia
Hodnotilo ľudí: 0 ohodnoť aj ty
Prispievateľ:

Rebelik52
E||-----------------------------0----------------------------------| 
B||------------0--1--0--1--3-----3--1--0--------1--0--0----------|
G||--2--1--2--------------------------------2-----------------2----2--|
D||---------------------------------------------2-------------------|
A||-------------------------------------------------------------|
E||-------------------------------------------------------------|

--0-----0--2--3--2--3--5--7--5--3--2--0-----3--2--2--0----0--|
-----4----------------------------------------0-------------------|
-------------------------------------------------------------|
-------------------------------------------------------------|
-------------------------------------------------------------|
-------------------------------------------------------------|

--0--5--3--1--0--5--0--------0----------|
---------------------------3--1-----0-------|
----------------------------------------|
----------------------------------------|
----------------------------------------|
----------------------------------------|

-----------------------------0----------------------------------||
-----------0--1--0--1--3-----3--1--0--------1--0--0----------||
--2--1--2--------------------------------2---------------2----2--||
---------------------------------------------2-------------------||
-------------------------------------------------------------||
-------------------------------------------------------------||

 
»
Tvoje obľúbené položky
Tvoje obľúbené položky

»
Najnovšie videá
Najnovšie videá

V nedeu za rna - slovensk udov pies

Pern Brothers Nesete doma pote do

SUK- Nebudem sa eni tejto jeseni

Na nitrianskej vei - slovensk udov p

Tak sa mi dieva pi - svadobn slove

Na jese ke chlapci rukuj, Faa milov
»
Najnavštevovanejšie piesne
Najnavštevovanejšie piesne



home | interpreti | register piesní | cd & dvd shop | pripomienky/nápady | kontakt | ochrana údajov | inzercia

TOPlist