Ag Flek

piesne (49)

  texty (47) / preklady (0)
  akordy (41) / taby (1)
  noty (0) / slideshow (0)

články (12)
fotogaléria
diskusia
videá
diskografia
v obchode
odkazy
koncerty
sťahuj



pridaj vlastný článok

Ag Flek:
Nové DVD AG Flek - koncert - AG Flek působí na české hudební scéně již přes třicet let, od roku 1977. Nyní se na pult...


Ag Flek:
Desítky kapel zdarma - lázeňská sezóna Teplice 2008 - Desítky kapel zdarma - lázeňská sezóna Teplice 2008 Slavnostní zahájení 854. lázeňské ... - supermusic.sk


Ag Flek:
Ve Mlejně dohrála hudba - folktime.cz


Ag Flek:
Květen na jihu Moravy: Monkey Business, Freak Power i Tata Bojs - muzikus.cz


Abraxas:
Hudobný videokalendár na pondelok 14. apríla - Hudobný videokalendár na pondelok 14. apríla * 14. apríla 1942 sa v anglickom Exeter n...


Ag Flek:
Country Lodenici prialo počasie, denne ju navštívilo 10-tisíc ľudí - Piešťany 2. septembra (TASR) - Nočným koncertom skupiny Čechomor sa rozlúčilo včera publi...


Ag Flek:
Indies Records: Nové CD - Indies Records: Nové CD Hradišťan & Jiří Pavlica - Hrajeme si u maminky - http://www...


Ag Flek:
Český folk sa dočkal knihy o legendách! - gregi.net


Ag Flek:
Slunce sobě! - Slunce sobě! Starobrno festival Slunce, který se letos konal o víkendu 9. - 10. červen... - folktime.cz


Ag Flek:
Síla folkrocku a lá AG Flek - Dobré kapely nestárnou a neztrácejí nic ze své jedinečnosti. Příkladem budiž legendární z... - part.cz


 

Ag Flek

Fanúšikov: 5



A B C Č D E F G H CH I J K L Ľ M N O P Q R S Š T U V W X Y Z Ž



ako:
Ag Flek - Carpe diem - intro
Ag Flek - Carpe diem - intro

tlač

edituj
Pesničku videlo 8407 návštevníkov.

Kvalita tabov : bez hodnotenia
Hodnotilo ľudí: 0 ohodnoť aj ty
Prispievateľ:

MartinMaly
Není to úplné, ale docela hezké a použitelné. Snad se vám to bude hodit. Je to moje první zapsaná tabulatura, tak to prosím berte s nadhledem. ;-)

C Am F G
e|----------------|---0-------0----|----------------|----------------|
b|5--s7--s6--s5---|1---1-0---------|----1-0---------|---1-------1-1013|
g|--0---0---0---0-|-2--------2---20|2-----------202-|--2-------2-2---|
D|----------------|--2------2------|---3------------|-3-------3------|
A|3--s6--s5--s3---|0-------0-------|----------------|----------------|
E|----------------|----------------|1---------------|1-------1-------|


C Am F Fmaj7 F
e|----------------|---0-------0----|------------000-|1--1--0-----110-|
b|5--s7--s6--s5---|1---1-0---------|---1--0-----000-|1--1--0-----110-|
g|--0---0---0---0-|-2--------2---20|2----------2222-|2--2--2-----222-|
D|----------------|--2------2------|--3-------3-333-|3--3--3-----333-|
A|3--s6--s5--s3---|0-------0-------|-3-------3--333-|3--3--3-----333-|
E|----------------|----------------|1-------1---000-|1--1--0-----110-|
(konec vybrnkávání)
(valchuj to pravou rukou)
Am Am A2 Am ...Nadešel asi poslední den...

Fmaj7 hraj jako F bez barré, A2 jako Am bez ukazováku.

 
»
Tvoje obľúbené položky
Tvoje obľúbené položky
»
Nové albumy interpreta
Nové albumy interpreta
DVD Ag Flek Koncert
DVD Koncert
CD  Ag Flek Blazni umiraji nadvakrat
CD Blazni umiraji
nadvakrat

»
Najnovšie videá
Najnovšie videá

Vlasta Redl & AG Flek "Carpe diem"

AG Flek - Carpe Diem (+text)

AG flek - Carpe diem


AG Flek - Carpe diem

Carpe Diem AG Flek
»
Najnavštevovanejšie piesne
Najnavštevovanejšie piesne
Kdy jindy měl bych už pít - akordy a text

Carpe diem - akordy a text

Dohrála hudba - akordy a text

Carpe diem - intro - taby

A te Rehradice - akordy a text

Město měst - akordy a text

Možná už naposled - akordy a text

Když ji potkal - akordy a text

Blázni umírají nadvakrát - akordy a text

Do Tramtárie - akordy a text

viac




home | interpreti | register piesní | cd & dvd shop | pripomienky/nápady | kontakt | ochrana údajov | inzercia
Copyright © Pavol Bacigál, 2000-2017. Všetky práva vyhradené.
TOPlist