Karel Kryl

piesne (266)

  texty (222) / preklady (11)
  akordy (194) / taby (19)
  noty (6) / slideshow (0)

články (65)
fotogaléria
diskusia
videá
diskografia
v obchode
odkazy
koncerty
sťahuj



pridaj vlastný článok

Karel Kryl:
TV tip: Dva koncerty Karla Kryla - Karel Kryl pro studenty autor: Česká televize zvětšit obrázek Koncert pro všechny sl... - scena.cz


Karel Kryl:
RECENZE: Karel Kryl na pomoc Polsku - RECENZE: Karel Kryl na pomoc Polsku Karla Kryla zná každý zejména díky jeho nejslavnějš... - ireport.cz


Karel Kryl:
Kýč, humor i hloubka: odkaz Karla Kryla v osmi coververzích - Kýč, humor i hloubka: odkaz Karla Kryla v osmi coververzích ... - ireport.cz


Karel Kryl:
Nohavica hral a spieval Kryla. K jeho nedožitým sedemdesiatinám - Nohavica hral a spieval Kryla. K jeho nedožitým sedemdesiatinám Pr i počúvaní priam... - sme.sk


Karel Kryl:
Čo zostalo po Karlovi Krylovi - Čo zostalo po Karlovi Krylovi Tento mesiac uplynulo dvadsať rokov od jeho smrti, o... - sme.sk


Karel Kryl:
Bývalý režim nedovolil Karlovi Krylovi prísť na otcov pohreb - Dvadsaťtri rokov po Nežnej revolúcii zavládlo v mnohých ľuďoch sklamanie. K tým nespokojn... - sme.sk


Karel Kryl:
Bývalý režim nedovolil Karlovi Krylovi prísť na otcov pohreb - Dvadsaťtri rokov po Nežnej revolúcii zavládlo v mnohých ľuďoch sklamanie. K tým nespokojn... - sme.sk


Karel Kryl:
Supraphon vydáva Rapošov film o Karlovi Krylovi z roku 1993 - České vydavateľstvo Supraphon vydá 16. novembra dokumentárny film o zosnulom hudobníkovi ...


Karel Kryl:
Supraphon vydáva Rapošov film o Karlovi Krylovi z roku 1993 - České vydavateľstvo Supraphon vydá 16. novembra dokumentárny film o zosnulom hudobníkovi ...


Karel Kryl:
Poslední dokument, v němž účinkoval Karel Kryl, vyjde na DVD - vydáno: 05.11.2012, 15:42 | aktualizace: 05.11.2012 15:49 1 ... - ceskenoviny.cz


 

Karel Kryl

Fanúšikov: 98



A B C Č D E F G H CH I J K L Ľ M N O P Q R S Š T U V W X Y Z Ž



ako:
Karel Kryl - Lilie
Karel Kryl - Lilie

tlač

edituj
Pesničku videlo 8042 návštevníkov.

Kvalita tabov : bez hodnotenia
Hodnotilo ľudí: 0 ohodnoť aj ty
Prispievateľ:

hubape
Předehra:

--------------------1-----------0--------0------------------------1-------
--1-1-3-5--5--5-3-5-3-5-3-1----0-0-0----1-------1-1-3-5--5--5-3-5-3-5-3-1-
--2-2-4-5--5--5-4-5-2-5-4-2---1---1----2--2-2---2-2-4-5--5--5-4-5-2-5-4-2-
--2-2-4---------4-------4-2--2--------2----2----2-2-4---------4-------4-2-
-0-----------------------------------0--------0---------------------------
----------------------------0---------------------------------------------


-----0--------0---
--------0----1--1-
---1--1-----2---2-
--2-2--2---2------
----------0-------
-0----------------



Sloka:

--------------------1-----------0--------0------------------------1-------
--1-1-3-5--5--5-3-5-3-5-3-1---0--0-0----1---0---1-1-3-5--5--5-3-5-3-5-3-1-
--2-2-4-5--5--5-4-5-2-5-4-2----1--1----2--2-1---2-2-4-5--5--5-4-5-2-5-4-2-
--2-2-4---------4-------4-2--2--------2---------2-2-4---------4-------4-2-
-0-----------------------------------0--------0---------------------------
----------------------------0---------------0-----------------------------


------0-1-0-------0-1-0--
----0------0----1------1-
---1-----------2-2-------
--2--2--------2----------
-------------0-----------
-0-----------------------



Refrén:

-----0-------3-------0-----------------0-------0--------------------0-
---1---1---0---0-------1----1---0----1-------1--1--1---0----1-3p1--0--
----0---0---0---0--2----2--2---1---2-------2-------2---1---2----------
--2---2---0---0---2-2-2---3---2---2-2-2-2-2-2-2---3---2---2-----------
-3---------------0---------------0-------0---------------0------------
---------3---------------1---0-------------------1---0----------------


-----0-------3-------0-----------------0-------0---------------0-
---1---1---0---0-------1----1---0----1-------1--1--1---0----1-0--
----0---0---0---0--2----2--2---1---2-------2-------2---1---2-----
--2---2---0---0---2-2-2---3---2---2-2-2-2-2-2-2---3---2---2------
-3---------------0---------------0-------0---------------0-------
---------3---------------1---0-------------------1---0-----------



Mezihra:

----------------1--------0-------0---
-1-3-5-3-1-0-1----1-1---3--3----1--0-
-2-4-5-4-2-0--2----2---1----1--2---1-
---------------3------2-------2------
-----------------------------0-------
-------------1-------0-------------0-



Předehra, Sloka, Refrén, Mezihra, Sloka, Refrén, Mezihra, Sloka, Refrén a Mezihra...ale to asi každý pochopil...:-)

Kdyby byly nějaké problémy - napište mi na mail

 
»
Tvoje obľúbené položky
Tvoje obľúbené položky
»
Nové albumy interpreta
Nové albumy interpreta
CD Kryl Karel Bratricku, zavirej vratka
CD Bratricku,
zavirej vratka
VINYL Kryl Karel Bratricku, zavirej vratka [vinyl]
VINYL Bratricku,
zavirej vratka
[vinyl]
2xCD+DVD Kryl Karel Karel kryl 70 - koncert - prazska lucern
2xCD+DVD Karel kryl 70 -
koncert -
prazska lucern
DVD Kryl Karel Kdo jsem?
DVD Kdo jsem?
2xCD Kryl Karel Nevydany koncert - solidarita (mnichov 1982)
2xCD Nevydany koncert
- solidarita
(mnichov 1982)
CD  Kryl Karel Kdo jsem...? - posledni zpoved
CD Kdo jsem...? -
posledni zpoved

»
Najnovšie videá
Najnovšie videá

Lilie - Karel Kryl

Karel Kryl - Lilie

Daniel Landa - Lilie (K.Kryl)

Karel Kryl we Wrocławiu (4.11.1989)

Karel Kryl Lilie

DANIEL LANDA - Večer s písní Karla Kryla
»
Najnavštevovanejšie piesne
Najnavštevovanejšie piesne



home | interpreti | register piesní | cd & dvd shop | pripomienky/nápady | kontakt | ochrana údajov | inzercia
Copyright © Pavol Bacigál, 2000-2017. Všetky práva vyhradené.
TOPlist