Alkehol

piesne (254)

  texty (176) / preklady (0)
  akordy (104) / taby (54)
  noty (0) / slideshow (0)

články (47)
fotogaléria
diskusia
videá
diskografia
v obchode
odkazy
koncerty
sťahuj



pridaj vlastný článok

Alkehol:
Alkehol oslaví čtvrtstoletí v Lucerně. Po jejich boku vystoupí Pepa Vojtek, Petr
Janda, Tři sestry a Lukáš Pavlásek
- Vydáno před 13 hodinami | autor: Nicola Bernard Litry piva, hromada alkoholu a tra... - ireport.cz


Alkehol:
Alkehol - Do bezvědomí - 12.12.2012 ve 12 hodin vyšlo nové CD skupiny Alkehol pod hlavičkou vydavatelství Al... - rockmag.cz


Alkehol:
Alkehol slaví 20 let své existence na turné a výběrovým albem - ceskenoviny.cz


Alkehol:
Hořké alkeholové vystřízlivění - musicserver.cz


Alkehol:
Na Wings Rockfeste v Očovej vystúpia Desmod, Alkehol i Brichta - Na letisku pri obci Očová sa premiérovo uskutoční letné hudobné podujatie Wings Rockfest...


Alkehol:
RECENZE: Písničkový tuplák Alkeholu je průvodcem na dvacetiletém tahu - ireport.cz


Alkehol:
Alkehol: Ke kalhotkám přidáme na web i boxerky - denik.cz


Alkehol:
Alkehol zpívají o „chlastu“ už 20 let, oslaví to turné i albem - ireport.cz


Alkehol:
ALKEHOL 20 LET NA TAHU - Tuplák 2CD všech nejlepších kousků… Skupina ALKEHOL letos slaví 20 let svojí existence. ...


Alkehol:
Noc plná hvězd s Mr. Big a Pro-Pain, Basinfirefest s Ill Niño, Benátská noc
s Clawfinger
- muzikus.cz


 

Alkehol

Fanúšikov: 27



A B C Č D E F G H CH I J K L Ľ M N O P Q R S Š T U V W X Y Z Ž



ako:
Alkehol - Už se to smaží a peče
Alkehol - Už se to smaží a peče

tlač

edituj
Rok vzniku: 2003
Pesničku videlo 4244 návštevníkov.

Kvalita tabov :
Hodnotilo ľudí: 1 ohodnoť aj ty
Prispievateľ:

palec13
  *** Autor textu: Alkehol *** Autor hudby: Alkehol
Alkehol
Už se to smaží a peče
Už se to smaží a peče (2003)

INTRO (8x)

e|---------------|
H|---------------|
G|---------------|
D|-----1-3-1-----|
A|-4-4-------4---|
E|---------------|



1.Mám rád skot krávy a bejky
ještě víc krvavý stejky
nejsem vůl zbožňuju sádlo
škvarky sůl to je pak žrádlo

e|--------------------------------------------------------------------|
H|--------------------------------------------------------------------|
G|-6-6-6--6-6-6-6-6--3-3-3-----------6-6-6--6-6-6-6-6--3-3-3----------|
D|-6-6-6--6-6-6-6-6--3-3-3--4-4-6-6--6-6-6--6-6-6-6-6--3-3-3--4-4-6-6-|
A|-4-4-4--4-4-4-4-4--1-1-1--4-4-6-6--4-4-4--4-4-4-4-4--1-1-1--4-4-6-6-|
E|--------------------------2-2-4-4---------------------------2-2-4-4-|




zvířata já miluju zvířata já moc miluju
e|---------------------------------------------|
H|---------------------------------------------|
G|---------------------------------------------|
D|-4444444466666666666-44444444466666666666666-|
A|-4444444466666666666-44444444466666666666666-|
E|-2222222244444444444-22222222244444444444444-|




REF.:
Zatají se dech
když se maso smaží anebo peče
to se hned líp kouká na ten svět

jen na hlavě nech
a když k tomu pivo proudem teče
nemá cenu o tom dlouze vyprávět


e|----------------------------------------------------------|
H|----------------------------------------------------------|
G|-66666666--------888888333333366666666--------------------|D|-666666666666666688888833333336666666644444446666666--4-4-|
A|-444444446666666666666611111114444444444444446666666--4-4-|
E|---------44444444---------------------22222224444444--2-2-|


e|------------------------------------------------------|
H|------------------------------------------------------|
G|-66666666--------888888333333366666666----------------|D|-666666666666666688888833333336666666644444446666666--|
A|-444444446666666666666611111114444444444444446666666--|
E|---------44444444---------------------22222224444444--|


4X INTRO

2.Prasátko, vesele chrochtá
omastek, v krku mě lochtá
bůček prejt ovar klobása
podívej není to krása

e|--------------------------------------------------------------------|
H|--------------------------------------------------------------------|
G|-6-6-6--6-6-6-6-6--3-3-3-----------6-6-6--6-6-6-6-6--3-3-3----------|
D|-6-6-6--6-6-6-6-6--3-3-3--4-4-6-6--6-6-6--6-6-6-6-6--3-3-3--4-4-6-6-|
A|-4-4-4--4-4-4-4-4--1-1-1--4-4-6-6--4-4-4--4-4-4-4-4--1-1-1--4-4-6-6-|
E|--------------------------2-2-4-4---------------------------2-2-4-4-|



zvířata já miluju zvířata já moc miluju

e|---------------------------------------------|
H|---------------------------------------------|
G|---------------------------------------------|
D|-4444444466666666666-44444444466666666666666-|
A|-4444444466666666666-44444444466666666666666-|
E|-2222222244444444444-22222222244444444444444-|



REF. (1X)

INTRO (8X)


REF. (SÓLO BASA)

REF. (1X)


Zatají se dech
Už se to smaží a peče

e|---------------|
H|---------------|
G|-6-------8---3-|
D|-6---6---8---3-|
A|-4---6---6---1-|
E|-----4---------|



 
»
Tvoje obľúbené položky
Tvoje obľúbené položky
»
Nové albumy interpreta
Nové albumy interpreta
3xCD Alkehol Platinum collection
3xCD Platinum
collection
CD Alkehol R.u.m.
CD R.u.m.
CD Alkehol Do bezvedomi
CD Do bezvedomi
2xCD Alkehol 20 let na tahu
2xCD 20 let na tahu
CD Alkehol Pojdme se napit
CD Pojdme se napit
CD Alkehol Odpocivej v pokoji ...
CD Odpocivej v
pokoji ...

»
Najnovšie videá
Najnovšie videá

Alkehol Plzeň - Už se to smaží a peče

Alkehol - Už se to smaží a peče

Alkehol - Slavnosti piva Kamínka 2012 (U

Alkehol - Uz se to smazi a pece [live @

Alkehol - Ten kdo chce

Alkehol - Už se to smaží a peče (Zlatník
»
Najnavštevovanejšie piesne
Najnavštevovanejšie piesne
V Bumbaru solo - taby

Travičko zelená - taby

Radek - akordy a text

Buráky - akordy a text

Ruty šuty - akordy a text

Pivo dělá hezká těla - akordy a text

Zmaštěnej - taby

Non stop - akordy a text

ŽIvot je krátkej - akordy a text

Blondýna - akordy a text

viac




home | interpreti | register piesní | cd & dvd shop | pripomienky/nápady | kontakt | ochrana údajov | inzercia
Copyright © Pavol Bacigál, 2000-2017. Všetky práva vyhradené.
TOPlist