Kabát

piesne (537)

  texty (262) / preklady (0)
  akordy (174) / taby (243)
  noty (0) / slideshow (0)

články (317)
fotogaléria
diskusia
videá
diskografia
v obchode
odkazy
koncerty
sťahuj



pridaj vlastný článok

Kabát:
Skupina Kabat na Topfeste! - ... - livemusic.sk


Kabát:
ROCK POD KAMEŇOM PODPORUJE ČESKO-SLOVENSKÚ ROCKOVÚ SCÉNU - Kompletný line-up nabitý svetovými rockermi s výbornou muzikou uzatvárajú zoskupenia rock... - P.Dráb


Accept:
Report z Metalfest Open Air 2016 v Plzni - Pamatujete na rok 2010, kdy se Metalfest Open Air konal poprvé? Tenkrát byl součástí sé... - rockmag.cz


Kabát:
Kabát prý prodal nejvíce desek, cenu na Andělech ale nevyhraje - Kabát prý prodal nejvíce desek, cenu na Andělech ale nevyhraje Nové desky pro 14. tý... - musicserver.cz


Adele:
Pětadvacátý ročník hudebních cen Anděl zná své výherce - Pětadvacátý ročník hudebních cen Anděl zná své výherce Video: Slza v novém klipu k p... - musicserver.cz


Kabát:
Kabát tvrdí, že je nespravedlivě vyřazen z boje o nejprodávanější album - Skupina Kabát tvrdí, že byla vyřazena z boje o nejprodávanější album loňského roku. Stalo... - novinky.cz


Kabát:
Kabát vyhlásil bojkot cenám Anděl! Podle rockerů jsou výsledky zmanipulované! - Skupina Kabát letošní ceny Anděl bude bojkotovat. Podle ní jsou výsledky zmanipulované. ... - blesk.cz


Kabát:
Spokojený rocker Pepa Vojtek: Vyvedl těhotnou manželku na nákupy - Šťastný rocker Pepa Vojtek vyvedl těhotnou manželku. Pepa Vojtek s manželkou Jovankou vy... - blesk.cz


Chinaski:
Hudobníci budú na TOPFEST-e skladať rockovú maturitu. V porote sú aj Zuzana
Smatanová, či Polemic!
- Published by MUSIC ZONE on 24. marca 2016 | Komentáre vypnuté na Hudobníci budú na TOPFES... - music-zone.eu


Kabát:
Na 13-tom ročníku festivalu TOPFEST to roztočia kapely Kabát, Puddle of Mudd a
UK Subs!
- ... - livemusic.sk


 

Kabát

Fanúšikov: 178



A B C Č D E F G H CH I J K L Ľ M N O P Q R S Š T U V W X Y Z Ž



ako:
Kabát - V PEKLE SUDY VÁLEJ!
Kabát - V PEKLE SUDY VÁLEJ!

tlač

edituj
Rok vzniku: 2000
Pesničku videlo 8880 návštevníkov.

Kvalita tabov :
Hodnotilo ľudí: 1 ohodnoť aj ty
Prispievateľ:

palec13
  *** Autor textu: Milan Špalek *** Autor hudby: Tomáš Krulich
Kabát
V PEKLE SUDY VÁLEJ
album: Go satane go (2000)



INTRO

e|---------------------------------------------------------------|
H|---------------------------------------------------------------|
G|---------------------------------------------------------------|
D|-5-5-5-5-5-5-5-5-5-5-5-5-5-5-5-5-5-5-5-5-5-5-5-5-5-5-5-5-5-5-5-|
A|-3-3-3-3-3-3-3-3-3-3-3-3-3-3-3-3-3-3-3-3-3-3-3-3-3-3-3-3-3-3-3-|
E|---------------------------------------------------------------|


e|-------------------------------------------------------------------|
H|-------------------------------------------------------------------|
G|-------------------------------------------------------------------|
D|-5-5-5-5-5-5-------------7-7-7-7-7-7-------------10-10-10-10-10-10-|
A|-3-3-3-3-3-3-5-5-5-5-5-5-5-5-5-5-5-5-8-8-8-8-8-8-8--8--8--8--8--8--|
E|-------------3-3-3-3-3-3-------------6-6-6-6-6-6-------------------|



RIFF 1

e|-------------------------------------------------------| H|-------------------------------------------------------|
G|-------------------------------------------------------|
D|-------------------------------------------------------|
A|-3-7-7-5-3~~3-3-5-5-5-3-5~~5-5-5-3-5~~5-3-5-5-5-3------|
E|--------------------------------------------------5~~--|



RIFF 2

e|-------------------------------------------------------|
H|-------------------------------------------------------|
G|-------------------------------------------------------|
D|-5---555555------7777777---------------10101010101010--|
A|-3---3333335-----5555555----8888888---- 8 8 8 8 8 8 8--|
E|-----------3----------------6666666--------------------|



REFRÉN

e|-------------------------------------------------------|
H|-------------------------------------------------------|
G|-------------------------------------------------------|
D|-5555555555----------7777777777----------101010101010--|
A|-3333333333555555555555555555558888888888 8 8 8 8 8 8--|
E|-----------3333333333----------6666666666--------------|



RIFF 3

e|----------------------------------|
H|----------------------------------|
G|----------------------------------|
D|-33333333333333----33333333333----|
A|-11111111111111333-11111111111555-|
E|---------------111------------333-|



RIFF 4

e|----------------------------------------|
H|----------------------------------------|
G|----------------------------------------|
D|--------3333----------3333------3333----|
A|--------1111----------1111------1111555-|
E|------------------------------------333-|


OUTRO

e|------------------------|
H|------------------------|
G|------------------------|
D|-------------------5555-|
A|-3-7-5-3--3-7-5-3--3333-|
E|------------------------|

_________________________________________________

INTRO
RIFF 1
RIFF 2
REFRÉN
RIFF 2
REFRÉN
RIFF 3
RIFF 1
RIFF 2
REFRÉN
RIFF 2
RIFF 1
RIFF 4
REFRÉN (2X)
RIFF 1
OUTRO

 
»
Tvoje obľúbené položky
Tvoje obľúbené položky
»
Nové albumy interpreta
Nové albumy interpreta
4xDVD Kabat 2013-2015 live vypich 2014 + o2 arena [3dvd+cd]
4xDVD 2013-2015 live
vypich 2014 + o2
arena [3dvd+cd]
4xCD Kabat Original albums 4cd vol.1 [mjm,dttz,colorado,zpt]
4xCD Original albums
4cd vol.1
[mjm,dttz,colora
do,zpt]
3xVINYL Kabat Suma sumarum [vinyl]
3xVINYL Suma sumarum
[vinyl]
CD Kabát Do pekla do nebe
CD Do pekla do nebe
3xCD+DVD Kabat Suma sumarum 2013 remastered
3xCD+DVD Suma sumarum
2013 remastered
2xCD Kabat Banditi di praga turne 2011
2xCD Banditi di praga
turne 2011

»
Najnovšie videá
Najnovšie videá

Kabát - V PEKLE SUDY VÁLEJ

Kabát-V pekle sudy válej obr.Video

Kabát - V pekle sudy válej (Turné Corrid

KABÁT - V pekle sudy válej (Live) [offic

kabát v pekle sudy válej s textom

Kabát - V pekle sudy válej + Přivítání [
»
Najnavštevovanejšie piesne
Najnavštevovanejšie piesne
Malá dáma - akordy a text

Houby magický - akordy a text

Pohoda - akordy a text

Western Boogie - akordy

Kdoví jestli - akordy a text

Burlaci - akordy a text

Brousíme nože - akordy a text

Corrida - akordy a text

Malá Dáma ver.2 - akordy a text

Schody - akordy a text

viac




home | interpreti | register piesní | cd & dvd shop | pripomienky/nápady | kontakt | ochrana údajov | inzercia
Copyright © Pavol Bacigál, 2000-2017. Všetky práva vyhradené.
TOPlist