Alkehol

piesne (254)

  texty (176) / preklady (0)
  akordy (104) / taby (54)
  noty (0) / slideshow (0)

články (47)
fotogaléria
diskusia
videá
diskografia
v obchode
odkazy
koncerty
sťahuj



pridaj vlastný článok

Alkehol:
Alkehol oslaví čtvrtstoletí v Lucerně. Po jejich boku vystoupí Pepa Vojtek, Petr
Janda, Tři sestry a Lukáš Pavlásek
- Vydáno před 13 hodinami | autor: Nicola Bernard Litry piva, hromada alkoholu a tra... - ireport.cz


Alkehol:
Alkehol - Do bezvědomí - 12.12.2012 ve 12 hodin vyšlo nové CD skupiny Alkehol pod hlavičkou vydavatelství Al... - rockmag.cz


Alkehol:
Alkehol slaví 20 let své existence na turné a výběrovým albem - ceskenoviny.cz


Alkehol:
Hořké alkeholové vystřízlivění - musicserver.cz


Alkehol:
Na Wings Rockfeste v Očovej vystúpia Desmod, Alkehol i Brichta - Na letisku pri obci Očová sa premiérovo uskutoční letné hudobné podujatie Wings Rockfest...


Alkehol:
RECENZE: Písničkový tuplák Alkeholu je průvodcem na dvacetiletém tahu - ireport.cz


Alkehol:
Alkehol: Ke kalhotkám přidáme na web i boxerky - denik.cz


Alkehol:
Alkehol zpívají o „chlastu“ už 20 let, oslaví to turné i albem - ireport.cz


Alkehol:
ALKEHOL 20 LET NA TAHU - Tuplák 2CD všech nejlepších kousků… Skupina ALKEHOL letos slaví 20 let svojí existence. ...


Alkehol:
Noc plná hvězd s Mr. Big a Pro-Pain, Basinfirefest s Ill Niño, Benátská noc
s Clawfinger
- muzikus.cz


 

Alkehol

Fanúšikov: 27



A B C Č D E F G H CH I J K L Ľ M N O P Q R S Š T U V W X Y Z Ž



ako:
Alkehol - Protiválečná
Alkehol - Protiválečná

tlač

edituj
Poznámka: ( komplet správně )

Pesničku videlo 2326 návštevníkov.

Kvalita tabov : bez hodnotenia
Hodnotilo ľudí: 0 ohodnoť aj ty
Prispievateľ:

Chosse
Intro F,B,C + vyhrávka


e---------------------------------------

h---------------------------------------

g---------------3---3-5-6-5-3-----------

D--3---3-5-6-5-3--------------6-5-------

A---------------------------------------

E---------------------------------------


e---------------------------------------

h---------------------------------------

g---------------3-3---5-6-5-------------

D--3---3-5-6-5-3------------------------

A---------------------------------------

E---------------------------------------


Po prvním refrému opět vyhrávka 2x a 2x o tón výš



e---------------------------------------

h---------------------------------------

g---------------5---5-7-8-7-5-----------

D--5---5-7-8-7-5--------------8-7-------

A---------------------------------------

E---------------------------------------


e---------------------------------------

h---------------------------------------

g---------------5-5---7-8-7-------------

D--5---5-7-8-7-5------------------------

A---------------------------------------

E---------------------------------------


sloka: F B C

ref.: B C F – 3x, C ( C D G – 3x , D)

konec pisně - D,A,G,Fis,G






Každej národ na světě je tak trochu jinej
ale jedno maj mezi sebou společný
skoro všichni totiž hrozně rádi pijou
a pro někoho to není zas tak náročný

Čech pije pivo, Slovák zase borovičku

Rus zase vodku, ten pod stolem je určitě Dán

Skotsko má Whisku a Morava slivovičku
tequilu nám naleje místo skalpování Indián

Hej papaláši, místo těch vašich válek
celej svět by se moh spitej pod stolem jenom válet

Bavorák, mám ho rád, vymyslel tuplák
Ital si dobrým vínem svůj krk proplách

Francouz má koňak a Japonec zase saké

Maďar svůj uherák zapije pálenkou také

Všechna ta světová válečná mašinérie
pramení z toho, že tu asi někdo nepije
a tak se zamyslete a už toho nechte
a všechna kasárna na pivovary změňte

Generálové budou mistři sládkové
to se ale budeme mít, místo
válčení se bude jenom pít

 
»
Tvoje obľúbené položky
Tvoje obľúbené položky
»
Nové albumy interpreta
Nové albumy interpreta
3xCD Alkehol Platinum collection
3xCD Platinum
collection
CD Alkehol R.u.m.
CD R.u.m.
CD Alkehol Pojdme se napit
CD Pojdme se napit
CDP Alkehol Pili jsme a budem
CDP Pili jsme a
budem
CD Alkehol Odpocivej v pokoji ...
CD Odpocivej v
pokoji ...
CD Alkehol Na zdravi
CD Na zdravi

»
Najnovšie videá
Najnovšie videá

Protiválečná

Alkehol Prach cest - lyrics video

Alkehol - Vezmem zákon do svejch rukou

ten kdo chce - alkehol

07 Alkehol Klub Vagón Praha 11 01 20

Mír
»
Najnavštevovanejšie piesne
Najnavštevovanejšie piesne
V Bumbaru solo - taby

Travičko zelená - taby

Radek - akordy a text

Buráky - akordy a text

Ruty šuty - akordy a text

Pivo dělá hezká těla - akordy a text

Zmaštěnej - taby

Non stop - akordy a text

ŽIvot je krátkej - akordy a text

Blondýna - akordy a text

viac




home | interpreti | register piesní | cd & dvd shop | pripomienky/nápady | kontakt | ochrana údajov | inzercia
Copyright © Pavol Bacigál, 2000-2017. Všetky práva vyhradené.
TOPlist