Sifon

piesne (25)

  texty (22) / preklady (0)
  akordy (4) / taby (3)
  noty (0) / slideshow (0)

články (4)
fotogaléria
diskusia
videá
diskografia
v obchode
odkazy
koncerty
sťahuj



pridaj vlastný článok

Ink Midget:
Ink Midget, Wich, Sifon z WWW a další frajeři producenty nové desky
Vladimíra 518
- Ink Midget, Wich, Sifon z WWW a další frajeři producenty nové desky Vladimíra 518 ... - musiczone.cz


Dan Deacon:
Začíná Sperm Festival - novinky.cz


Sifon:
Vladimir 518 a Sifon vystoupí v Národním divadle - musicserver.cz


 

Sifon

Fanúšikov: 0



A B C Č D E F G H CH I J K L Ľ M N O P Q R S Š T U V W X Y Z Ž



ako:
Sifon - Jdeme na pivo
Sifon - Jdeme na pivo

tlač

edituj
Poznámka: (komplet)

Pesničku videlo 3841 návštevníkov.

Kvalita tabov : bez hodnotenia
Hodnotilo ľudí: 0 ohodnoť aj ty
Prispievateľ:

Chosse
ref.: E, H, Fis, H
E, H, Fis, A, H, E

PŘECHOD NA SKLOKU: E, D

sl.: A, E, H, E
A, E, Gis

PŘECHOD NA Ref.: Gis, H


solo 1

e----------------------------------------------

h----------------------------------------------

g----------------------------------------------

D-------6----9-----7--7-6----------------------

A-7--7-9--9-7-9----------9---6--6-7-9----------

E----------------------------------------------



e----------------------------------------------

h----------------------------------------------

g----------------------------------------------

D-------6----9-----7--7p6h7p6------------------

A-7--7-9--9-7-9---------------9--7-9b11-7------

E----------------------------------------------


solo 2

e----------------------------------------------

h--------9----12-----10--10-9------------------

g-9--9-11-11-9--11-----------11---8--8-9-11----

D----------------------------------------------

A----------------------------------------------

E----------------------------------------------


e-16p14--14--16p14--14---16-14-------------------------------------------

h------17---------17-------------17-17p14--------------------------------

g----------------------------------------16-13-16p13---------------------

D---------------------------------------------------16-14-16v17v16v17-14-

A------------------------------------------------------------------------

E------------------------------------------------------------------------

Ref:
Jdeme na pivo, jdeme jdeme na pivo
to je pro nás pány správný palivo.
Jdeme na pivo, jdeme jdeme na pivo
žízní tělo strádá a jde o život.

1.Stercům v kravatách i chlápkům od mašin
za horkýho léta ukápne pár slin,
Práce nechají a táhnou k výčepům
a zrzouna pěnivýho tlačí ke svým rtům.

Ref:

2.Deset voltů má ten zrzek s čepicí
než zapadne slunce půjdem s vopicí,
až nám zatáhnou na knajpě roletu
zazpíváme hostinskýmu zrovna tuhletu.

3x Ref




 
»
Tvoje obľúbené položky
Tvoje obľúbené položky
»
Nové albumy interpreta
Nové albumy interpreta
6
CD Sifon Siphon
CD Siphon

»
Najnovšie videá
Najnovšie videá

Sifon - Jdeme na pivo.

Jdeme na pivo !!

Sifon jdeme na pivo

Sifon live 3 5 2014 Horadovice 4 - jdem

Jdeme na pivo - Sifon /smlk /

JDEME NA PIVO!!! Hraje skupina - Sifon /
»
Najnavštevovanejšie piesne
Najnavštevovanejšie piesne
Jdeme na pivo - akordy a text

100 hříchů - text

Frajer - akordy a text

Jdeme na pivo - taby

Pivní fata morgana - taby

Když tu nejsi - taby

Toulavá - Text

Pivní Fata morgána - text

Když tu nejsi - text

Rock je rock - text

Ďábel v nás - text

Slzy pominou - text

Bigbít - text

Toulavá - akordy a text

Hello Jane - akordy a text

Jdeme na pivo - text

Hello Jane - text

Myšlenky jdou - text

Sudé berou - text

Dům hrůz - text

viac




home | interpreti | register piesní | cd & dvd shop | pripomienky/nápady | kontakt | ochrana údajov | inzercia

TOPlist