Sifon

piesne (25)

  texty (22) / preklady (0)
  akordy (4) / taby (3)
  noty (0) / slideshow (0)

články (4)
fotogaléria
diskusia
videá
diskografia
v obchode
odkazy
koncerty
sťahuj



pridaj vlastný článok

Ink Midget:
Ink Midget, Wich, Sifon z WWW a další frajeři producenty nové desky Vladimíra
518
- Ink Midget, Wich, Sifon z WWW a další frajeři producenty nové desky Vladimíra 518 ... - musiczone.cz


Dan Deacon:
Začíná Sperm Festival - novinky.cz


Sifon:
Vladimir 518 a Sifon vystoupí v Národním divadle - musicserver.cz


 

Sifon

Fanúšikov: 0



A B C Č D E F G H CH I J K L Ľ M N O P Q R S Š T U V W X Y Z Ž



ako:
Sifon - Když tu nejsi
Sifon - Když tu nejsi

tlač

edituj
Pesničku videlo 2871 návštevníkov.

Kvalita tabov : bez hodnotenia
Hodnotilo ľudí: 0 ohodnoť aj ty
Prispievateľ:

Chosse
sl.: G,D,C

ref.: G,přechod přes Fis, Emi,D,G 3x A,D

solo 1
e----------------------------------------------

h-------8/15-8/15-13--15--13-------------------

g-7/12--------------16------16-12--------------

D----------------------------------------------

A----------------------------------------------

E----------------------------------------------


solo 2
e----------------------------15-------------

h-------------------------/17--17---15-15---

g--/9---9-11-12-11-9---------------------17-

D------9------------12----------------------

A-------------------------------------------

E-------------------------------------------


e-19-20-21-----------------------15-------------

h-----------13-12-10----------/17--17---15-15---

g-------------------12-11-9------------------17-

D--------------------------12-------------------

A-----------------------------------------------

E-----------------------------------------------



e-----------------------------------------------

h-----------------------------------------------

g-/12----11----7--5-7-9-7--------7--------------

D----------------------------9-7----------------

A-----------------------------------------------

E-----------------------------------------------

 
»
Tvoje obľúbené položky
Tvoje obľúbené položky
»
Nové albumy interpreta
Nové albumy interpreta
CD Sifon Siphon
CD Siphon

»
Najnovšie videá
Najnovšie videá

Y? - Když nejsi (Bonětice 2014 live)

Sifon Slzy pominou

Sifon generace

Sifon - Fámy

Sifon (CZE) - Cizinec

Sifon jdeme na pivo
»
Najnavštevovanejšie piesne
Najnavštevovanejšie piesne



home | interpreti | register piesní | cd & dvd shop | pripomienky/nápady | kontakt | ochrana údajov | inzercia
Copyright © Pavol Bacigál, 2000-2017. Všetky práva vyhradené.
TOPlist