Bijouterrier

piesne (42)

  texty (33) / preklady (1)
  akordy (26) / taby (2)
  noty (0) / slideshow (0)

články (0)
fotogaléria
diskusia
videá
diskografia
v obchode
odkazy
koncerty
sťahuj



pridaj vlastný článok

Bijouterrier:
Pankáči BIJOUTERRIER po prvýkrát s akustickým koncertom - Energetická bomba, ktorá si pod svoje meno píše vlastný žáner, teatro-punk, sa predstaví ... - Marián Tesák


Bijouterrier:
Teatro-punkoví BijouTerriér odhrajú svoj prvý po akustický koncert - Teatro-punkoví BijouTerriér odhrajú svoj prvý po akustický koncert ... - ahudba.sk


Bijouterrier:
Zverejnili program festivalu Vrbovské Vetry - Organizátori festivalu Vrbovské vetry zverejnili kompletný program ôsmeho ročníka podujat...


Bijouterrier:
NAJLEPŠIA SK HUDBA: Na Slovensku vznikajú skvelé kapely - 3 - NAJLEPŠIA SK HUDBA: Na Slovensku vznikajú skvelé kapely - 3 13.11.2012 10:00 Bohdana O... - atlas.sk


Bijouterrier:
Skupina Bijouterrier vyrazí na vianočno-novoročné turné - Slovenská hudobná skupina Bijouterrier absolvuje vianočno-novoročné turné, na ktorom pred...


Bijouterrier:
BijouTerrier vyráža na turné: Nahnevá novým klipom politikov? - Novú akvizíciu slovenskej hudobnej scény kapelu BijouTerrier, ktorá vznikla pod producent...


 

Bijouterrier

Fanúšikov: 6



A B C Č D E F G H CH I J K L Ľ M N O P Q R S Š T U V W X Y Z Ž



ako:
Bijouterrier - Mám na vajcách kléšta
Bijouterrier - Mám na vajcách kléšta

tlač

edituj
Pesničku videlo 3895 návštevníkov.

Kvalita tabov :
Hodnotilo ľudí: 1 ohodnoť aj ty
Prispievateľ:

ArnieBlow
e/---------------------------------------------------------
h/---------------------------------------------------------
g/----8------------8-8-8-8-8-8-8-8-8------------------8---- INTRO.
D/----8------------8-8-8-8-8-8-8-8-8---4--4--4--------8----
A/----6------------6-6-6-6-6-6-6-6-8---4--4--4--------6----
E/-------------------------------------2--2--2-------------


e/--------------------------------------
h/--------------------------------------
g/---8-8-8-8-8-8-8-8-8----------------8--
D/---8-8-8-8-8-8-8-8-8---4--4--4------8-- SLOHA.
A/---6-6-6-6-6-6-6-6-8---4--4--4------6-
E/-----------------------2--2--2--------
[Kléšta mám na...][Ukáž Máš ho tam!]

e/--------------------------------------
h/--------------------------------------
g/--------------------------------------
D/---4-3-2----4-3-2---4-3-2--4-3-2------ REF.
A/---4-3-2----4-3-2---4-3-2--4-3-2------
E/---2-1------2-1-----2-1----2-1--------
[Vyber te mu ho]

... [ Clean tone ]
e/-----------------------------------------------------------------------x12x--
h/-----------------------------------------------------------------------x12x--
g/---------------------------------------8--888-----------------8------------ REF.2
D/---4-3-2----4-3-2---4-3-----4-3-2------8--888-----4-3-2-------8-------------
A/---4-3-2----4-3-2---4-3-----4-3-2------6--666-----4-3-2-------6-------------
E/---2-1------2-1-----2-1-2*--2-1-2-----------------2-1----------------------

[Handlová city!] [ Opakovat 4x ] [last van Roza...]




Solo zatím dávám dohromady, nechci sem dávat části dokud to nebude perfektní :)


e/----------------------------------------
h/----------------------------------------
g/------------------------------8/-------- Konec
D/---4-3-2----------------------8/--------
A/---4-3-2----------------------6/--------
E/---2-1----------------------------------
[Kloktání]

Vysvětlivky:
Tón s hvězdou např. 2* = Pinch harmonic (zahrajte tón a sklouznete na nej nehtem)
... = Palm mute (tlumení hřbetem dlaně)
/ = slide bez čísla (sklouznutí až na začátek)
x = harmoinic (nestisknete strunu ale lehce se jí dotknete přímo na úrovni pražce)

Ladění standard E
Rytmus: ↓ ↓ ↓↑↓↑↓↑↑↓↑↓↓↑↓↑↓

 
»
Tvoje obľúbené položky
Tvoje obľúbené položky
»
Nové albumy interpreta
Nové albumy interpreta
CD Bijouterier Ladies and gentlemen
CD Ladies and
gentlemen

»
Najnovšie videá
Najnovšie videá

Bijouterrier - Mám na vajcách kléšťa (li

BijouTerrier - "Mam na vajcach klesta" @

Bijouterrier - Starci na chmelu & Mam na

BijouTerrier - Babka Natatrouská a Dedo

BijouTerrier - Mám na vajcách kléšťa

BIJOUTERRIER ( Corgoň Slížovica )
»
Najnavštevovanejšie piesne
Najnavštevovanejšie piesne



home | interpreti | register piesní | cd & dvd shop | pripomienky/nápady | kontakt | ochrana údajov | inzercia
Copyright © Pavol Bacigál, 2000-2017. Všetky práva vyhradené.
TOPlist