Olympic

piesne (310)

  texty (232) / preklady (1)
  akordy (241) / taby (24)
  noty (1) / slideshow (0)

články (149)
fotogaléria
diskusia
videá
diskografia
v obchode
odkazy
koncerty
sťahuj



pridaj vlastný článok

Petr Janda:
Boris Hybner v novém klipu Olympicu k písni "Amoleta" symbolizuje smíření - Vydáno: 11.06.2016 16:25 v sekci Video - Milan Menčík SDÍLET: Olympic v posledn... - musicserver.cz


Elán:
Gott, Olympic aj Elán na megakoncerte pripomenú 50. výročie Bratislavskej lýry - včera o 11:10 | redakcia Približne 30 hitov Bratislavskej lýry zaznie opäť naživo poča... - zoznam.sk


Martin Chodúr:
Bratislavská lýra oslávi 50. Pozrite si tváre, ktoré jej kraľovali - BRATISLAVA - V Bratislave sa 9. júna 1966 začal v Športovej hale na Pasienkoch Medzinár... - atlas.sk


Ľubo Belák:
Mainstream socializmu: Vďaka Bratislavskej lýre nás spoznal aj Západ - BRATISLAVA – Najikonickejšia súťaž populárnej hudby v Československu oslavuje 50. výročie... - atlas.sk


Petr Janda:
Petr Janda: Smrt syna je trauma na celý život | (8:07) | video: Playtvak.cz - Nevadí vám mít rodinu a práci pod jednou střechou? Naopak, jsem rád, že můžu mít všechn... - idnes.cz


Olympic:
Dnes vydáva nový album - Česká kapela Olympic dnes uviedla na trh nový album s názvom Souhvězdí romantiků, ktorý j...


Olympic:
Olympic vydáva nový album Souhvězdí romantiků - ... - livemusic.sk


Petr Janda:
S Petrem Jandou si v Karlíně zahrálo 58 kytaristů. Rekord nakonec nepadl - Praha - Akustické, elektrické i plastové. Na Karlínském Lyčkově náměstí se v sobotu sešli... - denik.cz


Petr Janda:
Jandu zadržali na letisku a okamžite vykázali z USA, rodina bola v šoku: Nikdy
som ich nevidel tak plakať!
- Jandu zadržali na letisku a okamžite vykázali z USA, rodina bola v šoku: Nikdy som ich ne... - cas.sk


Arakain:
Czech Blade hitparáda pokračuje. Druhý týden opět patřil Kabaretu Dr. Caligariho - Druhý týden Czech Blade hitparády máme za sebou. Do dalšího kola postupuje pouze devět kl... - musicserver.cz


 

Olympic

Fanúšikov: 45



A B C Č D E F G H CH I J K L Ľ M N O P Q R S Š T U V W X Y Z Ž



ako:
Olympic - Dávno - sólo
Olympic - Dávno - sólo

tlač

edituj
Rok vzniku: 1994
Pesničku videlo 11116 návštevníkov.

Kvalita tabov : bez hodnotenia
Hodnotilo ľudí: 0 ohodnoť aj ty
Prispievateľ:

droom18
E-----------------------------------------------------------------------

H--------------------------------15--11s12------------------------------

G---11h12--9-9---9-11s12--12s14------------14---11h12-14p11-------------

D-----------------------------------------------------------12-12-------

A-----------------------------------------------------------------------

E-----------------------------------------------------------------------




E-------------------------15b17--15-12----------------------------------

H--------------------------------------15b16----12----------------------

G-----9-11-11s12-11s9-9----------------------------14-12----12--14b16-14

D--12----------------------------------------------------14-------------

A-----------------------------------------------------------------------

E-----------------------------------------------------------------------



E----------------------------------------------------------------------

H----------------------------------------------------------------------

G--11h12-14p11------------9-11-11s12-11s9-9--9h11-12--14-12-11s9--7s9-9

D--------------12-12---12----------------------------------------------

A----------------------------------------------------------------------

E----------------------------------------------------------------------

 
»
Tvoje obľúbené položky
Tvoje obľúbené položky
»
Nové albumy interpreta
Nové albumy interpreta
CD Olympic Souhvezdi romantiku
CD Souhvezdi
romantiku
5xCD Gott Karel Duety
5xCD Duety
VINYL Olympic Souhvezdi drsnaku [vinyl]
VINYL Souhvezdi
drsnaku [vinyl]
CD Olympic Souhvezdi drsnaku
CD Souhvezdi
drsnaku
VINYL Olympic Souhvezdi silencu /vinyl/
VINYL Souhvezdi
silencu /vinyl/
CD Olympic Souhvezdi silencu
CD Souhvezdi
silencu

»
Najnovšie videá
Najnovšie videá

Olympic- Dávno

Olympic - Dávno (live)

Olympic - Dávno HQ

Olympic - Ty slzy davno vpila trava

Olympic - Dávno - Ostrava 2012 50let

Olympic - Ty slzy dávno vpila tráva
»
Najnavštevovanejšie piesne
Najnavštevovanejšie piesne
Slzy tvý mámy - akordy a text

Jasná Zpráva -100% presne - akordy a text

Jasná zpráva - akordy a text

Slzy tvý mámy (Správně) - akordy

Okno mé lásky - akordy a text

Dej mi víc své lásky - akordy a text

Jasná zpráva - akordy a text

Bon Soir Mademoiselle Paris - akordy

Osmý den - akordy a text

Bonsoir mademoiselle Paris - akordy a text

viac




home | interpreti | register piesní | cd & dvd shop | pripomienky/nápady | kontakt | ochrana údajov | inzercia
Copyright © Pavol Bacigál, 2000-2017. Všetky práva vyhradené.
TOPlist