Orlík

piesne (98)

  texty (63) / preklady (0)
  akordy (40) / taby (25)
  noty (0) / slideshow (0)

články (11)
fotogaléria
diskusia
videá
diskografia
v obchode
odkazy
koncerty
sťahuj



pridaj vlastný článok

Daniel Landa:
Daniel Landa zavíta na jeseň do Košíc - Český spevák Daniel Landa na budúci rok opäť zavíta na Slovensko. Štyridsaťšesťročný inte...


Daniel Landa:
Daniel Landa: (Ne)polepšený nácek? - super.cz


Kabát:
Landa spieval v slovenskom drese! - musicscaper.sk


Krysař:
Daniel Landa príde prvý raz koncertovať na Slovensko - Daniel Landa príde prvý raz koncertovať na Slovensko Bratislava 29. januára (TASR) - V...


Daniel Landa:
Daniel Landa “ČESKOSLOVENSKO 2008 tour“ - Daniel Landa “ČESKOSLOVENSKO 2008 tour“ Hudobník Daniel Landa v týchto dňoch doko...


Daniel Landa:
Daniel Landa: Bol som skinhead, ale už nie som - Landa dal o sebe vedieť v roku 1987, keď s Davidom Matáskom (mohli sme ho vidieť v Kleino...


Daniel Landa:
Dano Landa - Daniel Landa se narodil 4.11.1968 v Praze. V roce 1990 se oženil s Mirjam Müller, která j...


Orlík:
Orlík - Demise - Skupina Orlík síce už 15 rokov neexistuje, ale ešte aj dnes sa o nej vedú témy a zisťuje s...


Orlík:
Miloš Frýba for President - Miloš Frýba for President-Oi!Oi!Oi! Tí mhle prvním albumem rozjela svúj debut Skinheads...


Daniel Landa:
Daniel Landa: Vltava Tour - Daniel Landa: Vltava Tour 12. února 2004, 06:01 Martin Brabec Roku 2003 se přízni... - musicservice.cz


 

Orlík

Fanúšikov: 20



A B C Č D E F G H CH I J K L Ľ M N O P Q R S Š T U V W X Y Z Ž



ako:
Orlík - Praděda - intro
Orlík - Praděda - intro

tlač

edituj
Pesničku videlo 2866 návštevníkov.

Kvalita tabov : bez hodnotenia
Hodnotilo ľudí: 0 ohodnoť aj ty
Prispievateľ:

Primator24

2x:
e------------------------------------------------------------------
h------------------------------------------------------------------
g------------------------------------------------------------------
d------------------------------------------------------------------
a---------------5-4------------------------------------------------
e-------5-5-5-7-----5-5--0-0-7-7-5-5-5-----------------------------


e-------------------------------------------------------------------
h-------------------------------------------------------------------
g-------------------------------------------------------------------
d-------------------------------------------------------------------
a------------5-5-5-5-----------------0-0-2-4------------------------
e--------------------5-5-5---0-0-2-4--------------------------------


e------------------------------------------------------------------
h------------------------------------------------------------------
g------------------------------------------------------------------
d------------------------------------------------------------------
a------------5-5-5-5---------5-5-5-5-------------------------------
e--------------------5-5-5-----------0-0-2-4-----------------------

e------------------------------------------------------------------
h------------------------------------------------------------------
g------------------------------------------------------------------
d------------------------------------------------------------------
a---------------5-4------------------------------------------------
e-------5-5-5-7-----5-5--0-0-7-7-5-5-5-----------------------------




 
»
Tvoje obľúbené položky
Tvoje obľúbené položky
»
Nové albumy interpreta
Nové albumy interpreta
CD Orlik Milos fryba for president/remast
CD Milos fryba for
president/remast
CD Orlik Demise! /remastered
CD Demise!
/remastered

»
Najnovšie videá
Najnovšie videá

4. Orlík - Praděda

Orlík-Demise-Pr aděda

Orlík - Praděda + SCK VIDEO

ORLÍK - Praděda

Orlík - Praděda

Orlík - Nejlepší písničky 2
»
Najnavštevovanejšie piesne
Najnavštevovanejšie piesne
Bílej jezdec - akordy a text

Bílá liga - akordy a text

My proti nám - akordy a text

Ty vole, Láďo! - akordy a text

Dokolečka - akordy a text

Praděda - akordy a text

Zahrádka - akordy a text

Bílá Liga - taby

Bílej jezdec - solo - taby

Pivečko - akordy a text

viac




home | interpreti | register piesní | cd & dvd shop | pripomienky/nápady | kontakt | ochrana údajov | inzercia
Copyright © Pavol Bacigál, 2000-2017. Všetky práva vyhradené.
TOPlist