Xindl X

piesne (108)

  texty (78) / preklady (0)
  akordy (51) / taby (16)
  noty (0) / slideshow (0)

články (93)
fotogaléria
diskusia
videá
diskografia
v obchode
odkazy
koncerty
sťahuj



pridaj vlastný článok

Thom Artway:
Festival Slunovrat objevil nové písnièkáøe - 23.03. | Autor: PR | sekce: novinky Tamdoletma - Slunovrat Tamdoletma - Slunovrat Dn... - muzikus.cz


Abraxas:
Votvírák – s novou vlnou předprodeje připlouvá i Pavol Habera & Team - 8 Duben 2017 David Nguyen Žádné komentáře Novinky Votvírák – s novou vlnou... - rockandpop.cz


Xindl X:
Multimilionář XINDL X za dva týdny vyráží na turné. - První dva pražské koncerty jsou již vyprodané! V Bratislavě zahraje 5. & 6. dubna, ... - Turner


Xindl X:
Xindl X vyrazí na turné s kapelou i jen s kytarou - Xindl X vyrazí na turné s kapelou i jen s kytarou Autor: Iva Boková 01.11.2016 Tis... - abradio.cz


Xindl X:
XINDL X príde po prvýkrát s celou kapelou na Slovensko. - XINDL X na Slovensku hrá veľmi rád. A slovenskí fanúšikovia si to uvedomujú. Posle... - M.Kucera


Xindl X:
Xindl X sa vracia na slovenské turné a ty môžeš vyhrať 3×2 vstupenky! - 4. októbra 2016 marekmuzika 8 Comments Xindl X vo svojich pesničkách často a rád p... - music-zone.eu


Xindl X:
Xindl X: Forma oligarchie může být stejně nebezpečná jako komunismus - Písničkář Xindl X (37) přichází s novým albem. Jmenuje se Kvadratura záchrannéh... - novinky.cz


Xindl X:
Xindl X interview: V Česku se úspěch neodpouští, proto jsem napsal píseň
o poměřování pindíků
- Vydáno před 19 hodinami | autor: Jaroslav Noska Na nové desce Kvadratura záchr... - ireport.cz


Shawn Mendes:
Nová alba: Xindl X, Shawn Mendes, Tři sestry či The Fellas - Blíží se konec roku a alba umělců výrazných jmen přicházejí na trh. V tomto tý...


Xindl X:
Xindl X upevňuje albem "Kvadratura záchranného kruhu" svoji pozici - Vydáno: 23.09.2016 09:00 v sekci Recenze - Milan Menčík Xindl X si na domácí hudebn... - musicserver.cz


 

Xindl X

Fanúšikov: 26



A B C Č D E F G H CH I J K L Ľ M N O P Q R S Š T U V W X Y Z Ž



ako:
Xindl X - Mamut
Xindl X - Mamut

tlač

edituj
Pesničku videlo 3776 návštevníkov.

Kvalita tabov :
Hodnotilo ľudí: 1 ohodnoť aj ty
Prispievateľ:

Abii44
  *** Autor textu: Xindl X *** Autor hudby: Xindl X
Ladění je eBGDAD - tedy podladíte nejtlustší strunu o celý tón dolů
Rytmus se do tabů nedá moc dobře přepsat, tak si s tím nějak pohrajte, není to zas tak těžký.

Intro + Sloky

e|----|------------------------|----------------------|
B|----|------------------------|----------------------|
G|----|------------------------|----------------------|
D|-3b-|-0---0-3---0-3--xx---5b-|-0--x--0--/12-12\--3b-|
A|-3b-|-0---0-3---0-3--xx---5b-|-0--x--0--/12-12\--3b-|
D|-3b-|-0---0-3---0-3--xx---5b-|-0--x--0--/12-12\--3b-|

e|------------------------|---------------------|
B|------------------------|---------------------|
G|------------------------|---------------------|
D|-0---0-3---0-3--xx---5b-|-0-------------------|
A|-0---0-3---0-3--xx---5b-|-0-------------------|
D|-0---0-3---0-3--xx---5b-|-0-------------------|

Refrén

e|----|----------------|------------------|
B|----|----------------|------------------|
G|----|-------/7-7-7-7-|-3-3-3-3-2-2-2----|
D|-3b-|-0-0-0-/7-7-7-7-|-3-3-3-3-2-2-2-3b-|
A|-3b-|-0-0-0-/5-5-5-5-|-1-1-1-1-0-0-0-3b-|
D|-3b-|-0-0-0----------|---------------3b-|

e|----------------|-----------------|
B|----------------|-----------------|
G|-------/7-7-7-7-|-3-3-3-3-2-2-2-2-|
D|-0-0-0-/7-7-7-7-|-3-3-3-3-2-2-2-2-|
A|-0-0-0-/5-5-5-5-|-1-1-1-1-0-0-0-0-|
D|-0-0-0----------|-----------------|


e|-----------------|------------------|
B|-----------------|------------------|
G|---7-7-7-7-7-7-7-|---5-5-5/9-9-9----|
D|-5-5-5-5-5-5-5-5-|-3-3-3-3/7-7-7-3b-|
A|-5-5-5-5-5-5-5-5-|-3-3-3-3/7-7-7-3b-|
D|-5-5-5-5-5-5-5-5-|-3-3-3-3/7-7-7-3b-|

Po refrénu mezihra stejná jako Intro a sloka

Sólo

e|----|------------------------------|------------------------------|
B|----|------------------------------|------------------------------|
G|----|------------------------------|------------------------------|
D|-3b-|-0-------------------------3b-|-0-------------------------3b-|
A|-3b-|-0-3p0---5p0---8p0---3p0---3b-|-0-3p0---5p0---8p0---3p0---3b-|
D|-3b-|-0-----0-----0-----0-----0-3b-|-0-----0-----0-----0-----0-3b-|

e|------------------------------|------------------------------|
B|------------------------------|------------------------------|
G|------------------------------|------------------------------|
D|-0-------------------------3b-|-0-------------------------3b-|
A|-0-3p0---5p0---8p0---3p0---3b-|-0-------------------------3b-|
D|-0-----0-----0-----0-----0-3b-|-0-3p0-0-5p0-0-6p0-0-5p0-0-3b-|

e|----|------------------------------|------------------------------|
B|----|------------------------------|------------------------------|
G|----|------------------------------|------------------------------|
D|-3b-|-0-------------------------3b-|-0-------------------------3b-|
A|-3b-|-0-3p0---5p0---8p0---3p0---3b-|-0-3p0---5p0---8p0---3p0---3b-|
D|-3b-|-0-----0-----0-----0-----0-3b-|-0-----0-----0-----0-----0-3b-|

e|------------------------------|
B|------------------------------|
G|------------------------------|
D|-0-------------------------3b-|
A|-0-3p0---5p0---8p0---3p0---3b-|
D|-0-----0-----0-----0-----0-3b-|

e|------------------------------------------------------------------------|
B|------------------------------------------------------------------------|
G|------------------------------------------------------------------------|
D|-------------0h3h5-------------------0h3h5-------------------0h3h5------|
A|-------0h3h5-------0h3h5-------0h3h5-------0h3h5-------0h3h5-------0h3h5|
D|-0h3h5-------------------0h3h5-------------------0h3h5------------------|

Vyhrávka

e|-----------|-----|
B|-----------|-----|
G|-----------|-----|
D|-0-2-3-5---|-0---|
A|-0-2-3-5---|-0---|
D|-0-2-3-5---|-0---|

Nakonci hrajete kus sloky, rychlej konec sóla a nakonec vyhrávku.


Kdybyste měli jakýkoliv dotazy, pište na ondrej.rolecek@seznam.cz. Báj ;)

 
»
Tvoje obľúbené položky
Tvoje obľúbené položky
»
Nové albumy interpreta
Nové albumy interpreta
6
VINYL Xindl-x Kvadratura zachranneho... [vinyl]
VINYL Kvadratura
zachranneho...
[vinyl]
CD Xindl-x Kvadratura zachranneho kruhu
CD Kvadratura
zachranneho
kruhu
5xCD Gott Karel Duety
5xCD Duety
2xCD+DVD Xindl X G2 acoustic stage/dvd
2xCD+DVD G2 acoustic
stage/dvd
CD+DVD Kryl Karel Karel kryl 70 - koncert - prazska luc
CD+DVD Karel kryl 70 -
koncert -
prazska luc
2xCD Xindl-x Cechacek made
2xCD Cechacek made

»
Najnovšie videá
Najnovšie videá

Xindl x - Mamut - Studio version

Xindl X - Mamut

Xavier Baumaxa, Xindl x- Mamut a Penis

Xindl x Andl Mamut

Xindl X - Mamut

Xindl X- mamut, live, Rock for people 20
»
Najnavštevovanejšie piesne
Najnavštevovanejšie piesne
Popelka - akordy a text

V blbým věku - akordy a text

Cudzinka v tvojej zemi - akordy a text

V blbým věku - akordy a text

Na vodě - akordy

Barbína - akordy a text

Anděl - akordy a text

V blbým věku - text

Štědrý večer nastal - akordy a text

Chemie - akordy a text

Láska v housce - akordy a text

Anděl - akordy a text

Andel - text

Čecháček a totáček - taby

Láska v housce - akordy

Dočasná svatá - akordy a text

Štědrý večer nastal-oprava - akordy a text

Chemie - taby

Čecháček a totáček - akordy a text

Hollywood - akordy a text

viac




home | interpreti | register piesní | cd & dvd shop | pripomienky/nápady | kontakt | ochrana údajov | inzercia

TOPlist