Punkasius

piesne (41)

  texty (16) / preklady (0)
  akordy (1) / taby (25)
  noty (0) / slideshow (0)

články (0)
fotogaléria
diskusia
videá
diskografia
v obchode
odkazy
koncerty
sťahuj



pridaj vlastný článok

Punkasius:
Start Punkasius 3.12.2012 - 30.11.2012 (Pátek) měl schůzku Tomáš s Michalem a ten den si společně zahráli. J...


Punkasius:
Jak Vznikl název Punkasius - Kluci vymysleli název punkasius, až po delší době hraní.. Měli hodně nápadů, ...


 

Punkasius

Fanúšikov: 0



A B C Č D E F G H CH I J K L Ľ M N O P Q R S Š T U V W X Y Z Ž



ako:
Punkasius - Svině - (Guitar)
Punkasius - Svině - (Guitar)

tlač

edituj
Rok vzniku: 2013
Pesničku videlo 1579 návštevníkov.

Kvalita tabov : bez hodnotenia
Hodnotilo ľudí: 0 ohodnoť aj ty
Prispievateľ:

Punkasius
  *** Autor textu: Punkasius *** Autor hudby: Punkasius
Intro: 2x


E --10-10-10-10-12-13-13-13--10-10-10-10-12-13-13-13--
H ----------------------------------------------------
G ----------------------------------------------------
D ----------------------------------------------------
A ----------------------------------------------------
E ----------------------------------------------------


E --10-10-10-10-12-13-13-13-------------13-12-12-12---
H ---------------------------13-13-13-13--------------
G ----------------------------------------------------
D ----------------------------------------------------
A ----------------------------------------------------
E ----------------------------------------------------


Sloka: 2x


E ----------------------------------------------------
H ----------------------------------------------------
G -----------97777777--95555555--73333----------------
D --7777777--97777777--95555555--73333--5555----------
A --7777777--75555555--73333333--51111--5555----------
E --5555555-----------------------------3333----------


Před Refrénem:


E ----------------------------------------------------
H ----------------------------------------------------
G --7777-9-101010--7777-9-101010----------------------
D --7777-9-101010--7777-9-101010----------------------
A --5555-7-8-8-8---5555-7-8-8-8-----------------------
E ----------------------------------------------------


E ----------------------------------------------------
H ----------------------------------------------------
G --7777-9-101010------------10-999-------------------
D --7777-9-101010--10101010--10-999-------------------
A --5555-7-8-8-8---10101010--8--777-------------------
E -----------------8-8-8-8----------------------------


Refrén: 4x


E ----------------------------------------------------
H ----------------------------------------------------
G --77777777------------99999999----------------------
D --77777777--77777777--99999999--99999999------------
A --55555555--77777777--77777777--99999999------------
E ------------55555555------------77777777------------


Vyhrávka:


E --10-10-10-10-12-13-13-13--10-10-10-10-12-13-13-13--
H ----------------------------------------------------
G ----------------------------------------------------
D ----------------------------------------------------
A ----------------------------------------------------
E ----------------------------------------------------


E --10-10-10-10-12-13-13-13-------------13-12-12-12---
H ---------------------------13-13-13-13--------------
G ----------------------------------------------------
D ----------------------------------------------------
A ----------------------------------------------------
E ----------------------------------------------------


Sloka: 2x


E ----------------------------------------------------
H ----------------------------------------------------
G -----------97777777--95555555--73333----------------
D --7777777--97777777--95555555--73333--5555----------
A --7777777--75555555--73333333--51111--5555----------
E --5555555-----------------------------3333----------


Před Refrénem:


E ----------------------------------------------------
H ----------------------------------------------------
G --7777-9-101010--7777-9-101010----------------------
D --7777-9-101010--7777-9-101010----------------------
A --5555-7-8-8-8---5555-7-8-8-8-----------------------
E ----------------------------------------------------


E ----------------------------------------------------
H ----------------------------------------------------
G --7777-9-101010------------10-999-------------------
D --7777-9-101010--10101010--10-999-------------------
A --5555-7-8-8-8---10101010--8--777-------------------
E -----------------8-8-8-8----------------------------


Refrén: 4x


E ----------------------------------------------------
H ----------------------------------------------------
G --77777777------------99999999----------------------
D --77777777--77777777--99999999--99999999------------
A --55555555--77777777--77777777--99999999------------
E ------------55555555------------77777777------------


Intro: 2x


E --10-10-10-10-12-13-13-13--10-10-10-10-12-13-13-13--
H ----------------------------------------------------
G ----------------------------------------------------
D ----------------------------------------------------
A ----------------------------------------------------
E ----------------------------------------------------


E --10-10-10-10-12-13-13-13-------------13-12-12-12---
H ---------------------------13-13-13-13--------------
G ----------------------------------------------------
D ----------------------------------------------------
A ----------------------------------------------------
E ----------------------------------------------------


E --10~----13~---------13-12-10~--10------------------
H ----------------13~---------------------------------
G ----------------------------------------------------
D ----------------------------------------------------
A ----------------------------------------------------
E ----------------------------------------------------

 
»
Tvoje obľúbené položky
Tvoje obľúbené položky
»
Nové albumy interpreta
Nové albumy interpreta
6

»
Najnovšie videá
Najnovšie videá

Punkasius - Live in Suchdol Cel Koncert

Harlej - Zaalo To Nevinn (Holka Modroo

SVIN! live Braniovice

Svin! Live Ostrava 11.6.2010

Svaen vno

Splatoon Servers are down...
»
Najnavštevovanejšie piesne
Najnavštevovanejšie piesne



home | interpreti | register piesní | cd & dvd shop | pripomienky/nápady | kontakt | ochrana údajov | inzercia

TOPlist