Punkasius

piesne (41)

  texty (16) / preklady (0)
  akordy (1) / taby (25)
  noty (0) / slideshow (0)

články (0)
fotogaléria
diskusia
videá
diskografia
v obchode
odkazy
koncerty
sťahuj



pridaj vlastný článok

Punkasius:
Start Punkasius 3.12.2012 - 30.11.2012 (Pátek) měl schůzku Tomáš s Michalem a ten den si společně zahráli. Jen kytar...


Punkasius:
Jak Vznikl název Punkasius - Kluci vymysleli název punkasius, až po delší době hraní.. Měli hodně nápadů, ale pak Mi...


 

Punkasius

Fanúšikov: 0



A B C Č D E F G H CH I J K L Ľ M N O P Q R S Š T U V W X Y Z Ž



ako:
Punkasius - Zkaženej Svět (Bass)
Punkasius - Zkaženej Svět (Bass)

tlač

edituj
Rok vzniku: 2012
Pesničku videlo 2071 návštevníkov.

Kvalita tabov : bez hodnotenia
Hodnotilo ľudí: 0 ohodnoť aj ty
Prispievateľ:

Punkasius
  *** Autor textu: Punkasius *** Autor hudby: Punkasius
Intro: 2x


E -------------------------------------------------------------

H -------------------------------------------------------------

G -------------------------------------------------------------

D -------------------------------------------------------------

A --5~----------2~---------------------------------------------

E --------3~----------5~---------------------------------------


2x


E -------------------------------------------------------------

H -------------------------------------------------------------

G -------------------------------------------------------------

D -------------------------------------------------------------

A --55555555------------22222222-------------------------------

E ------------33333333------------55555555---------------------


Před slokou: 2x


E --------------------------------------------------------------------------

H --------------------------------------------------------------------------

G --------------------------------------------------------------------------

D --------------------------------------------------------------------------

A --5555555555555555--------------------2222222222222222--------------------

E --------------------3333333333333333--------------------5555555555555555--


Sloka: 4x


E --------------------------------------------------------------------------

H --------------------------------------------------------------------------

G --------------------------------------------------------------------------

D --------------------------------------------------------------------------

A --5555555555555555--------------------2222222222222222--------------------

E --------------------3333333333333333--------------------5555555555555555--


Před Refrénem:


E --------------------------------------------------------------------

H --------------------------------------------------------------------

G --------------------------------------------------------------------

D -----4575-------------124-4-----------------------------------------

A --5-5--------235---2-2---------457----5-5-5-5-------2-2-2-2---------

E ----------3-3---------------5-5--------------3-3-3-3-------5-5-5-5--


Refrén: 2x


E --------------------------------------------------------------------------

H --------------------------------------------------------------------------

G --------------------------------------------------------------------------

D --------------------------------------------------------------------------

A --5555555555555555--------------------------------------------------------

E --------------------5555555555555555--7777777777777777--3333333333333333--


Před slokou: 2x


E --------------------------------------------------------------------------

H --------------------------------------------------------------------------

G --------------------------------------------------------------------------

D --------------------------------------------------------------------------

A --5555555555555555--------------------2222222222222222--------------------

E --------------------3333333333333333--------------------5555555555555555--


Sloka: 4x


E --------------------------------------------------------------------------

H --------------------------------------------------------------------------

G --------------------------------------------------------------------------

D --------------------------------------------------------------------------

A --5555555555555555--------------------2222222222222222--------------------

E --------------------3333333333333333--------------------5555555555555555--


Před Refrénem:


E --------------------------------------------------------------------

H --------------------------------------------------------------------

G --------------------------------------------------------------------

D -----4575-------------124-4-----------------------------------------

A --5-5--------235---2-2---------457----5-5-5-5-------2-2-2-2---------

E ----------3-3---------------5-5--------------3-3-3-3-------5-5-5-5--


Refrén: 2x


E --------------------------------------------------------------------------

H --------------------------------------------------------------------------

G --------------------------------------------------------------------------

D --------------------------------------------------------------------------

A --5555555555555555--------------------------------------------------------

E --------------------5555555555555555--7777777777777777--3333333333333333--


Konec: 3x


E -------------------------------------------------------------

H -------------------------------------------------------------

G -------------------------------------------------------------

D -------------------------------------------------------------

A --55555555------------22222222-------------------------------

E ------------33333333------------55555555---------------------

 
»
Tvoje obľúbené položky
Tvoje obľúbené položky
»
Nové albumy interpreta
Nové albumy interpreta

»
Najnovšie videá
Najnovšie videá

Punkasius celé CD + Lyrics (TEXTY)

Punkasius - Live in Suchdol Celý Koncert

Punkasius - Gylotyna (Live official musi

Punkasius - Dofča + Saxofon
»
Najnavštevovanejšie piesne
Najnavštevovanejšie piesne



home | interpreti | register piesní | cd & dvd shop | pripomienky/nápady | kontakt | ochrana údajov | inzercia
Copyright © Pavol Bacigál, 2000-2017. Všetky práva vyhradené.
TOPlist