Wohnout

piesne (156)

  texty (122) / preklady (0)
  akordy (60) / taby (26)
  noty (0) / slideshow (0)

články (244)
fotogaléria
diskusia
videá
diskografia
v obchode
odkazy
koncerty
sťahuj



pridaj vlastný článok

Celeste Buckingham:
TOP 8 klipů týdne (112.): Top Dream Company uvádějí Xenofobní stát, Carmel
Buckingham je víc než jen sestra Celeste
- Vydáno před 20 hodinami | autor: Hana Bukáčková Tento týden v našem klipovém výběr... - ireport.cz


Eva Pilarová:
Wohnout oslavili na Vyžlovce Sladkých dvacet i s Evou Pilarovou - Vydáno před 13 hodinami Facebook15 Twitter0 Google+0 Kapela Wohnout si letos připom... - ireport.cz


Wohnout:
Wohnouti na svůj open air zvou řadu hostů, chybět nebude ani Eva Pilarová - Wohnouti na svůj open air zvou řadu hostů, chybět nebude ani Eva Pilarová Vydáno: 14.0... - musicserver.cz


Wohnout:
Dvacetiny s Wohnout oslaví řada hostů - Dvacetiny s Wohnout oslaví řada hostů Autor: Iva Boková 13.06.2016 Tisk Skupina Wohn... - abradio.cz


Richard Krajčo:
POST SCRIPTUM (44): "Namyšlený" Richard Krajčo a "závistivý" Matěj Homola aneb
Jak se v Česku dělá z komára velbloud
- Vydáno 05.05.2016 | autor: Simona Knotková Facebook38 Twitter0 Google+0 Co se škádlív... - ireport.cz


Atmo Music:
Okoř se šťávou představuje program: Vystoupí Slza, ATMO Music, Rybičky 48, UDG,
Voxel, Wohnout i Visací zámek
- Vydáno před 22 hodinami | autor: redakce Facebook368 Twitter0 Google+0 Už 18. ročník ... - ireport.cz


Wohnout:
REPORT: Wohnouti slavili dvacetiny. Sáhli i po neznámých kusech - Liberec /FOTOGALERIE/ - Na libereckém koncertu si fanoušci užili starší kousky, které kap... - denik.cz


Wohnout:
Wohnout: Postoj zaujmeme, až někdo zdraží pivo na 200 korun - 12. 3. 2016 kapela Wohnout (zleva Matěj Homola, Honza Homola, Zdeněk Steiner, Jirka Zemá... - aktualne.cz


Wohnout:
Wohnout slaví dvacítku a sahá do prehistorie - Minulý pátek odstartovala pražská rocková skupina Wohnout v Jihlavě koncertní turné nazva... - novinky.cz


Wohnout:
Wohnout vyhlašuje šťastné pondělí - Skupina Wohnout se rozhodla zpříjemnit fanouškům začátky týdne a nabízí jim dokumentárn... - selingerova


 

Wohnout

Fanúšikov: 27



A B C Č D E F G H CH I J K L Ľ M N O P Q R S Š T U V W X Y Z Ž



ako:
Wohnout - Polib si dědu
Wohnout - Polib si dědu

tlač

edituj
Rok vzniku: 2006
Pesničku videlo 3468 návštevníkov.

Kvalita tabov : bez hodnotenia
Hodnotilo ľudí: 0 ohodnoť aj ty
Prispievateľ:

rododendron
  *** Autor textu: Wohnout *** Autor hudby: Wohnout
WOHNOUT - Polib Si Dedu
Eb Tuning


e|------------------------------------------0------------------|
B|---------------------------------------2-----2---------------|
G|---------4-----0--------------------3-----------3------------|
D|------4-----4--------------------4-----------------4---------|
A|---2---------------------------------------------------------|
E|-------------------------------------------------------------|


G|-------------------------------------------------------------|
D|----------------------------------4-4-4-4-2------------------|
A|--------------------------------------------5-4--------------|
E|----------------------------------bass.----------------------|


e|----------------------------------------------0--------------|
B|-------------------------------------------2-----------------|
G|---------4-----0--2--0------------------3--------------------|
D|------4-----4-----------4------------4-----------------------|
A|---2---------------------------------------------------------|
E|-----------------------------------clean-gtr.----------------|


Ve skladbě se opakuje riff, a vše stojí na akordech B, G a F#


Leží na stole
Sklenice plná jedu
Vedle pistole
Héle jí neposedu
Nápad pacholek
Berme za nápovědu
Jak skočit navštívit dědu

Dobráci od kosti nám nechali pár možností

Takže třeba jed, bude to hned
Po cestě nevyhládne
Cíl je na dohled a start je teď
Kdopak tam asi vládne
Šílenej děda, či praděda
Či nějaká jiná teta
Co kdyby tam hnila sketa

Tak proč se spolejhat na zdraví a bejt asketa

Psychotronika, satanisti
Karty a meditace
Zvláštní logika, jehovisti
Nad biblí recitace
Kdopak pravdu měl, či neměl
Za týhle situace kdo měl vyšumět, vyšuměl
A na konci by asi mělo sedět štěstí


B G F#
V neděli pravili doufej

Že přijde děda
B G F#
Ale pondělí už neni tak OK

Tak kdo je teda
B G F#
Hloupej, hloupej, hloupej
B G F#
Když tu šakalaka nikde nikdo není

Ani praděda

e|------------------------------------------------|
B|--6h7-------------------------------------------|
G|-------6h7--------------------------------------|
D|------------8h9---------------------------------|
A|-----------------9h10--4h5--1h2-----------------|
E|---------------------------------2h3p2-0--------|

Leží na stole
Sklenice plná jedu
Hádej ty vole
Co je, polib si dědu
Ptej se faráře
Svlečenej za oltářem
Co mu vadí na kytaře

Psychotronika, satanisti
Karty a meditace
Zvláštní logika, jehovisti
Nad biblí recitace
Kdopak pravdu měl, či neměl
Za týhle situace kdo měl vyšumět, vyšuměl
A na konci by asi mělo sedět štěstí

V neděli pravili doufej
Že přijde děda
Ale pondělí už neni tak OK
Tak kdo je teda
Hloupej, hloupej, hloupej
Když doprdele nikde neni děda
Aha a tak si polib dědu

Takže heslo dne dopadne
Hele polib si dědu
Kdo to nezvládne, propadne
Hele polib si dědu
Mír nezvládne, když vyhládne
Hele polib si dědu
Takže pořádně, pořádně si po...

 
»
Tvoje obľúbené položky
Tvoje obľúbené položky
»
Nové albumy interpreta
Nové albumy interpreta
CD Wohnout Laskonky a kremrole
CD Laskonky a
kremrole
2xCD Wohnout G2 acoustic stage/dvd
2xCD G2 acoustic
stage/dvd

»
Najnovšie videá
Najnovšie videá

Wohnout - Polib si dědu

Wohnout - Kulibrci

Wohnout - Polib si dedu (Herálec live)

Polib si dědu

WOHNOUT - Jaroušek na tři

Wohnout - Polib si dědu
»
Najnavštevovanejšie piesne
Najnavštevovanejšie piesne



home | interpreti | register piesní | cd & dvd shop | pripomienky/nápady | kontakt | ochrana údajov | inzercia
Copyright © Pavol Bacigál, 2000-2017. Všetky práva vyhradené.
TOPlist