Punkasius

piesne (41)

  texty (16) / preklady (0)
  akordy (1) / taby (25)
  noty (0) / slideshow (0)

články (0)
fotogaléria
diskusia
videá
diskografia
v obchode
odkazy
koncerty
sťahuj



pridaj vlastný článok

Punkasius:
Start Punkasius 3.12.2012 - 30.11.2012 (Pátek) měl schůzku Tomáš s Michalem a ten den si společně zahráli. Jen kytar...


Punkasius:
Jak Vznikl název Punkasius - Kluci vymysleli název punkasius, až po delší době hraní.. Měli hodně nápadů, ale pak Mi...


 

Punkasius

Fanúšikov: 0



A B C Č D E F G H CH I J K L Ľ M N O P Q R S Š T U V W X Y Z Ž



ako:
Punkasius - Rum (Bass)
Punkasius - Rum (Bass)

tlač

edituj
Rok vzniku: 2013
Pesničku videlo 1307 návštevníkov.

Kvalita tabov : bez hodnotenia
Hodnotilo ľudí: 0 ohodnoť aj ty
Prispievateľ:

Punkasius
  *** Autor textu: Punkasius *** Autor hudby: Punkasius
Intro, sloka

E ----------------------------------------------------
H ----------------------------------------------------
G ----------------------------------------------------
D ----------------------------------------------------
A --77777777------------44444444----------------------
E ------------55555555------------77777777------------

Před Ref. 2x

E ----------------------------------------------------
H ----------------------------------------------------
G ----------------------------------------------------
D ----------------------------------------------------
A ----------------------------------------------------
E --55555555--77777777--------------------------------

Refrén. 4x

E ----------------------------------------------------
H ----------------------------------------------------
G ----------------------------------------------------
D ----------------------------------------------------
A ---------55555---------33333------------------------
E --33333---------55555-------------------------------

Refrén 2. část

E ----------------------------------------------------
H ----------------------------------------------------
G ----------------------------------------------------
D ----------------------------------------------------
A --------9-9-9-9-------------7777--------------------
E --7777------------9-9-9-9---------------------------

Konec vyhrávka. 2x

E ----------------------------------------------------
H ----------------------------------------------------
G ----------------------------------------------------
D ----------------------------------------------------
A --333------------666----333------------6------------
E -------111--444--------------111--444----6-1--------

 
»
Tvoje obľúbené položky
Tvoje obľúbené položky
»
Nové albumy interpreta
Nové albumy interpreta

»
Najnovšie videá
Najnovšie videá
»
Najnavštevovanejšie piesne
Najnavštevovanejšie piesne



home | interpreti | register piesní | cd & dvd shop | pripomienky/nápady | kontakt | ochrana údajov | inzercia
Copyright © Pavol Bacigál, 2000-2017. Všetky práva vyhradené.
TOPlist