Kritická Situace

piesne (30)

  texty (27) / preklady (0)
  akordy (2) / taby (3)
  noty (0) / slideshow (0)

články (1)
fotogaléria
diskusia
videá
diskografia
v obchode
odkazy
koncerty
sťahuj



pridaj vlastný článok

Bones:
Hardcore punk - 90. LÉTA - HARDCORE PUNK Koncem roku 1989 začaly na strahovské Sedmičce vystupova... - klub007strahov.cz


 

Kritická Situace

Fanúšikov: 0



A B C Č D E F G H CH I J K L Ľ M N O P Q R S Š T U V W X Y Z Ž



ako:
Kritická Situace - Blaničtí rytíři
Kritická Situace - Blaničtí rytíři

tlač

edituj
Rok vzniku: 1993
Pesničku videlo 2685 návštevníkov.

Kvalita tabov : bez hodnotenia
Hodnotilo ľudí: 0 ohodnoť aj ty
Prispievateľ:

elizion
intro:

e---------------------------------------------------------------------------
B---------------------------------------------------------------------------
G--9--9-9----12-7-5---------------------------------------------------------
D--9--9-9----12-7-5---------------------------------------------------------
A--7--7-7----10-5-3---------------------------------------------------------
E---------------------------------------------------------------------------

RIFF1 - 4x

e---------------------------------------------------------------------------
B---------------------------------------------------------------------------
G--9-x-x-x-x-7/9-x-x-x-x-7/9/7/9/7-5----------------------------------------
D--9-x-x-x-x-7/9-x-x-x-x-7/9/7/9/7-5----------------------------------------
A--7-x-x-x-x-5/7-x-x-x-x-5/7/5/7/5-3----------------------------------------
E---------------------------------------------------------------------------

SLOHA - 4x

e---------------------------------------------------------------------------
B---------------------------------------------------------------------------
G-9~-----------------------------5brbr--------------------------------------
D-9~------------------------------------------------------------------------
A-7~------------------------------------------------------------------------
E---------------------------------------------------------------------------

RIFF1 - 4x

REFREN

e---------------------------------------------------------------------------
B---------------------------------------------------------------------------
G--------7-7-7--------------------------------------------------------------
D-5-5-5--7-7-7--------------------------------------------------------------
A-5-5-5--5-5-5--------------------------------------------------------------
E-3-3-3---------------------------------------------------------------------

 
»
Tvoje obľúbené položky
Tvoje obľúbené položky
»
Nové albumy interpreta
Nové albumy interpreta
6

»
Najnovšie videá
Najnovšie videá

Kritick situace - Blanin ryti

Kritick Situace - Blanit Ryti (Live

KRITICK SITUACE - Blanit Ryti_Lucer

kritick Situace - Blanit Ryti

Kritick Situace - Blanit ryti (2013

Kritick Situace-vb//M orituri Te Salu
»
Najnavštevovanejšie piesne
Najnavštevovanejšie piesne



home | interpreti | register piesní | cd & dvd shop | pripomienky/nápady | kontakt | ochrana údajov | inzercia

TOPlist