Zakázaný Ovoce

piesne (57)

  texty (49) / preklady (0)
  akordy (19) / taby (4)
  noty (0) / slideshow (0)

články (8)
fotogaléria
diskusia
videá
diskografia
v obchode
odkazy
koncerty
sťahuj



pridaj vlastný článok

Zakázaný Ovoce:
zakázanÝovoce nabralo nebývalou energii a vyráží na dvě koncertní turné
současně. Skupina s sebou také přiveze nové album "Díky vám!"
- Vydáno: 29.09.2016 16:44 v sekci Tiskové zprávy - Tisková zpráva SDÍLET: Kapela... - musicserver.cz


Zakázaný Ovoce:
ZakázanÝovoce bylo okradeno členem kapely - zakázanÝovoce bylo okradeno členem kapely Recenze: The Weeknd na "Beauty Behind The... - musicserver.cz


Mandrage:
Soutěž o nejlepší hudební design: předvedou se Mandrage, Zakázaný ovoce i
the.switch
- /**/ více tiscali.cz ... - IREPORT


Totální Nasazení:
Valník přivítá Visací zámek, Totální nasazení i Zakázaný ovoce - Valník přivítá Visací zámek, Totální nasazení i Zakázaný ovoce];" style="display: none;">... - IREPORT


Civilní Obrana:
Nové Hrady ožijí - festival New Castles se kvapem blíží - Nové Hrady ožijí - festival New Castles se kvapem blíží 21. 05. 2013 | Petr L... - IREPORT


Zakázaný Ovoce:
Minirozhovory s Ocelovými Ptáky - Yaris - Minirozhovor s Ocelovými Ptáky - Yaris Ahoj Yaris! Tak co ty, jak se žije v novém roce... - punk.cz


Totální Nasazení:
Totální nasazení a Zakázaný ovoce vyrazí na společné tour - 19. 01. 2013 | redakce Oceloví ptáci tour 2013 - to je název společného t... - ireport.cz


Totální Nasazení:
Zakázaný ovoce, Totální nasazení a Sklap předvedli skvělou show - musicweb.cz


Zakázaný Ovoce:
zakázanÝovoce zveřejnilo cover a termín vydání nové desky! - Punk rocková kapela zakázanÝovoce odtajnila první informace o nové desce, kterou v těchto...


Zakázaný Ovoce:
zakázanÝovoce: Pornostár a další plány03. 02. 2011 | Marie Bartošová - ireport.cz


 

Zakázaný Ovoce

Fanúšikov: 12



A B C Č D E F G H CH I J K L Ľ M N O P Q R S Š T U V W X Y Z Ž



ako:
Zakázaný Ovoce - Alkoholka
Zakázaný Ovoce - Alkoholka

tlač

edituj
Pesničku videlo 10971 návštevníkov.

Kvalita tabov :
Hodnotilo ľudí: 3 ohodnoť aj ty
Prispievateľ:

ArnieBlow
Akustická část

Ami C G
e--------------------------
h-------1------1-----0-----
g-----2--2-0----0------0---
D----2-2--2---2------------
A---0--------3-----2-------
E-----------------3--------

(Obvykle smělá pozná tě během pár vět..)


Elektrická kytara

1. sloka

e-----------------------------
h-----------------------------
g------------333333-----------
D---55555555-333333-333333---- 3x
A---55555555-111111-333333----
E---33333333--------111111----
........ ...... ......

(Zástupy chlapů, co je teď bez ní pálí svět..)

e----------------
h----------------
g-------------3--
D---55555555--3--
A---55555555--1--
E---33333333-----
........



e-----------------------------------------
h-----------------------------------------
g------------------3---3------------------
D---5---5----------3---3------3---3------- 4x
A---5---5----------1---1------3---3-------
E---3---3---------------------1---1-------

(Když projeví se, léčíš se z toho tolik let...)



/// Akustická část ////

(Byl konec léta tobě to vyrazilo dech..
nejsem ta skvělá, kterou vídáváš ve svejch snech)


Elektrická kytara Nájezd na refrén

e----------------------------------------- e---------------------------------
h----------------------------------------- h---------------------------------
g----------3--------3--------------------- g---------3---------3--------------
D-------5---5-5----3-3----3--------------- 3x D------5---5-5------3------3-------0\
A------5-5---5----1------3-3-------------- A----5--5---5-------1------3-------0\
E----3------------------1----------------- E--3-----------------------1-------
......... ..... .... ........... Slide trsátkem

(Jó hochu nejsi první, kdo se mnou má tenhleten pech..)



Ref.

e---------------------------------------------------
h---------------------------------------------------
g----------------------------------------------3333-
D--8888-----------3333----------5555-----------3333-
A--8888-----------3333----------5555-----------1111-
E--6666-----------1111----------3333----------------

(Chtěl si vedle mě žít, bejt šťastnej ale mě neochočíš, tím to asi hasne...)




Solo vyhrávka

e--s6-6-6-5-5-6-5---10-8-10-8-6-6-8-8-8-6---6-6-6-5-5-6-5--------------------------
h-----------------8--------------------------------------8-8-6-8-6-----------------
g-----------------------------------------------------------------7-7-8-8-8-7------
D----------------------------------------------------------------------------------
A----------------------------------------------------------------------------------
E----------------------------------------------------------------------------------



/// Akustická část ////
(Byla si tak skvělá, byla si novej zážitek
Neokoukaná, já jenom naivní snílek)


Elektrická kytara Nájezd na refrén

e----------------------------------------- e---------------------------------
h----------------------------------------- h---------------------------------
g----------3--------3--------------------- g---------3---------3--------------
D-------5---5-5----3-3----3--------------- 3x D------5---5-5------3------3-------0\
A------5-5---5----1------3-3-------------- A----5--5---5-------1------3-------0\
E----3------------------1----------------- E--3-----------------------1-------
Slide trsátkem

(Bylas víc sexy, než bych do koho bejval řek...)


Ref.

e---------------------------------------------------
h---------------------------------------------------
g----------------------------------------------3333-
D--8888-----------3333----------5555-----------3333-
A--8888-----------3333----------5555-----------1111-
E--6666-----------1111----------3333----------------

(Chtěl si vedle mě žít, bejt šťastnej ale mě neochočíš, tím to asi hasne...)



Solo vyhrávka 2

e---10-10-8-10-8----------------10-10-8-10-8-------11-11-11-10--10-13-10-13-8-10-11-11-11-10-------------------------------------
h---------------10-10-11-10-8----------------11-13-------------------------------------------8-10-11-10-8------------------------
g---------------------------------------------------------------------------------------------------------7-8-8-8-7~-------------
D--------------------------------------------------------------------------------------------------------------------------------
A--------------------------------------------------------------------------------------------------------------------------------
E--------------------------------------------------------------------------------------------------------------------------------



Vysvětlivky:
... = Palm mute (tlumení hřbetem dlaně)

s/ = slide nahoru
s\ = slide dolu


Ladění standard E

Pokud máte nějaké dotazy nebo připomínky nebo pokud jsem někde udělal chybu prosím ohlaště mi jí na email: ArnieArnold@seznam.cz

Prosím rate! To je to jediné jak můžete ocenit můj čas který jsem nad tím strávil ;)

 
»
Tvoje obľúbené položky
Tvoje obľúbené položky
»
Nové albumy interpreta
Nové albumy interpreta

»
Najnovšie videá
Najnovšie videá

Zakazany Ovoce - Alkoholka

zakázanÝovoce - Vem si mě (oficiální vid

zakázanÝovoce - Nech mě odejít (oficiáln

Zakázaný ovoce- Alkoholka text

zakázanÝovoce - Irská (amatérský videokl

Zakázaný ovoce - Nech mě odejít
»
Najnavštevovanejšie piesne
Najnavštevovanejšie piesne
Alkoholka - akordy a text

Nech mě odejít - akordy a text

Město Andělů - akordy a text

Nech mě odejít - akordy a text

Pornostár - akordy a text

Alkoholka - taby

Zastávka na znamení - akordy

NikdY nezapomenem - akordy a text

Zastávka na znamení - akordy

Genocida - akordy a text

viac




home | interpreti | register piesní | cd & dvd shop | pripomienky/nápady | kontakt | ochrana údajov | inzercia
Copyright © Pavol Bacigál, 2000-2017. Všetky práva vyhradené.
TOPlist