Kýbel Mačiek

piesne (25)

  texty (15) / preklady (0)
  akordy (21) / taby (3)
  noty (0) / slideshow (0)

články (0)
fotogaléria
diskusia
videá
diskografia
v obchode
odkazy
koncerty
sťahuj



pridaj vlastný článok

Kýbel Mačiek:
Kýbel Mačiek sa pýtajú: Je to pop*či? - ... - gregi.net


Kýbel Mačiek:
Kýbel mačiek objavuje slovné hračky a buranroll - ... - sme.sk


Kýbel Mačiek:
Kýbel Mačiek – Vzbura Buranov - ... - xorpi.name


 

Kýbel Mačiek

Fanúšikov: 4



A B C Č D E F G H CH I J K L Ľ M N O P Q R S Š T U V W X Y Z Ž



ako:
Kýbel Mačiek - Šalátový holokaust - intro
Kýbel Mačiek - Šalátový holokaust - intro

tlač

edituj
Rok vzniku: 2011
Pesničku videlo 2189 návštevníkov.

Kvalita tabov : bez hodnotenia
Hodnotilo ľudí: 0 ohodnoť aj ty
Prispievateľ:

Bilbo_KM
  *** Autor textu: Kýbel Mačiek *** Autor hudby: Kýbel Mačiek
L - legato
x - tlmenie lavou rukou
h - hammer/pull off
b - bend
s - slide
~ - vibrato
> - akcent
t - trilok
M - tlmenie dlanou
. - staccato
+ - tapping
W - siroke vibrato
< - crescendo
w - whammy
= - tremolo

E |----------------|-------|-------|-------|-------|
B |----------------|-------|-------|-------|-------|
G |----------------|-------|-------|-------|-------|
D |----------------|-------|-------|-------|-------|
A |----------------|--7----|--7----|--7----|--7s---|
E |----------------|--5----|--5----|--5----|--5s---|


----------------------------|----------------------------|
----------------------------|----------------------------|
----------------------------|----------------------------|
----------------------------|----------------------------|
--7-----7--7-----7--7-------|--7--------6--------5-------|
--5-----5--5-----5--5-------|----------------------------|


----------------------------|----------------------------|
----------------------------|----------------------------|
----------------------------|----------------------------|
----------------------------|----------------------------|
--7--------5--------3-------|--2-----2-----------2-------|
----------------------------|-----------3-----3----------|


----------------------------|----------------------------|
----------------------------|----------------------------|
----------------------------|----------------------------|
----------------------------|----------------------------|
--7-----7--7-----7--7-------|--7--------6--------5-------|
--5-----5--5-----5--5-------|----------------------------|


----------------------------|----------------------------|----------------|
----------------------------|----------------------------|----------------|
----------------------------|----------------------------|----------------|
----------------------------|----------------------------|----------------|
--7--------5--------3-------|-----------2----------------|----------------|
----------------------------|--3-----------------3-------|--5--3--4--5----|


----------------------------|----------------------------|
----------------------------|----------------------------|
----------------------------|----------------------------|
----------------------------|----------------------------|
--7--------6--------5-------|--7--------5--------3-------|
----------------------------|----------------------------|


----------------------------|----------------|----------------------------|
----------------------------|----------------|----------------------------|
----------------------------|----------------|----------------------------|
----------------------------|----------------|----------------------------|
--2-----2-----------2-------|----------------|--7--------6--------5-------|
-----------3-----3----------|--5--3--4--5----|----------------------------|


----------------------------|----------------------------|----------------|
----------------------------|----------------------------|----------------|
----------------------------|----------------------------|----------------|
----------------------------|----------------------------|----------------|
--7--------5--------3-------|--2-----2-----------2-------|----------------|
----------------------------|-----------3-----3----------|--5--3--4--5----|


----------------------------|----------------------------|
----------------------------|----------------------------|
----------------------------|----------------------------|
----------------------------|----------------------------|
--7--------6--------5-------|--7--------5--------3-------|
----------------------------|----------------------------|


----------------------------|----------------|----------------------------|
----------------------------|----------------|----------------------------|
----------------------------|----------------|----------------------------|
----------------------------|----------------|----------------------------|
--2-----2-----------2-------|----------------|--7--------6--------5-------|
-----------3-----3----------|--5--3--4--5----|----------------------------|


----------------------------|----------------------------|-------|----|----|
----------------------------|----------------------------|-------|----|----|
----------------------------|----------------------------|-------|----|----|
----------------------------|----------------------------|-------|----|----|
--7--------5--------3-------|----------------------------|-------|----|----|
----------------------------|--0--------3--------4-------|--5----|----|----|

 
»
Tvoje obľúbené položky
Tvoje obľúbené položky
»
Nové albumy interpreta
Nové albumy interpreta

»
Najnovšie videá
Najnovšie videá

Kýbel Mačiek - Šalátový holokaust

Kýbel Mačiek - Šalátový holokaust (acous

Kýbel Mačiek- Šalátový Holokaust (Live W

Kýbel Mačiek - Vzbura Buranov (2012) [Fu

Kýbel Mačiek - Dvere

Kýbel Mačiek - Rozjebem byt (Official vi
»
Najnavštevovanejšie piesne
Najnavštevovanejšie piesne
Opitý som - akordy a text

Pratala sa žena L.B.S. - akordy a text

Nechoď do lesa - akordy a text

Blonďavá - akordy a text

Ukáž mi kozy - akordy a text

Rozjebem byt - akordy a text

Šalátový holokaust - akordy a text

Je to popiči ?? - akordy a text

Nie som doma - akordy a text

Bazerant - akordy

viac




home | interpreti | register piesní | cd & dvd shop | pripomienky/nápady | kontakt | ochrana údajov | inzercia
Copyright © Pavol Bacigál, 2000-2017. Všetky práva vyhradené.
TOPlist