Xindl X

piesne (108)

  texty (78) / preklady (0)
  akordy (51) / taby (16)
  noty (0) / slideshow (0)

články (93)
fotogaléria
diskusia
videá
diskografia
v obchode
odkazy
koncerty
sťahuj



pridaj vlastný článok

Thom Artway:
Festival Slunovrat objevil nové písnièkáøe - 23.03. | Autor: PR | sekce: novinky Tamdoletma - Slunovrat Tamdoletma - Slunovrat Dn... - muzikus.cz


Abraxas:
Votvírák – s novou vlnou předprodeje připlouvá i Pavol Habera & Team - 8 Duben 2017 David Nguyen Žádné komentáře Novinky Votvírák – s novou vlnou předprod... - rockandpop.cz


Xindl X:
Multimilionář XINDL X za dva týdny vyráží na turné. - První dva pražské koncerty jsou již vyprodané! V Bratislavě zahraje 5. & 6. dubna, v Nové... - Turner


Xindl X:
Xindl X vyrazí na turné s kapelou i jen s kytarou - Xindl X vyrazí na turné s kapelou i jen s kytarou Autor: Iva Boková 01.11.2016 Tisk ... - abradio.cz


Xindl X:
XINDL X príde po prvýkrát s celou kapelou na Slovensko. - XINDL X na Slovensku hrá veľmi rád. A slovenskí fanúšikovia si to uvedomujú. Posledné rok... - M.Kucera


Xindl X:
Xindl X sa vracia na slovenské turné a ty môžeš vyhrať 3×2 vstupenky! - 4. októbra 2016 marekmuzika 8 Comments Xindl X vo svojich pesničkách často a rád provok... - music-zone.eu


Xindl X:
Xindl X: Forma oligarchie může být stejně nebezpečná jako komunismus - Písničkář Xindl X (37) přichází s novým albem. Jmenuje se Kvadratura záchranného kruhu a ... - novinky.cz


Xindl X:
Xindl X interview: V Česku se úspěch neodpouští, proto jsem napsal píseň o
poměřování pindíků
- Vydáno před 19 hodinami | autor: Jaroslav Noska Na nové desce Kvadratura záchranné... - ireport.cz


Shawn Mendes:
Nová alba: Xindl X, Shawn Mendes, Tři sestry či The Fellas - Blíží se konec roku a alba umělců výrazných jmen přicházejí na trh. V tomto týdnu upozorň...


Xindl X:
Xindl X upevňuje albem "Kvadratura záchranného kruhu" svoji pozici - Vydáno: 23.09.2016 09:00 v sekci Recenze - Milan Menčík Xindl X si na domácí hudební scé... - musicserver.cz


 

Xindl X

Fanúšikov: 24



A B C Č D E F G H CH I J K L Ľ M N O P Q R S Š T U V W X Y Z Ž



ako:
Xindl X - Kluci na plakátě
Xindl X - Kluci na plakátě

tlač

edituj
Poznámka: album Lá$ka (2012)
Připomínky: septikb@seznam.cz


Pesničku videlo 2233 návštevníkov.

Kvalita tabov : bez hodnotenia
Hodnotilo ľudí: 0 ohodnoť aj ty
Prispievateľ:

septik
RIFF – hraje se jako intro a přes všechny sloky
REFRÉN – v textu jako ®
PRECHORUS – po každé sloce (kromě 5.)


RIFF
D* G*/H G*
e|----------------|----------------|----------------|----------------|
h|-------3--------|-------3--------|-------3--------|----------------|
g|-----2----2-----|-----0----0-----|-----0----0-----|----------------|
d|-0--------------|----------------|----------------|--------3-------|
A|------------3---|-2--------------|----------------|----3-5---5-3-0-|
E|----------------|------------3---|-3----------3---|----------------|

D* G*/H G* G
e|----------------|----------------|----------------|-3-3-----3-3----||
h|-------3--------|-------3--------|-------3--------|-3-3-----3-3----||
g|-----2----2-----|-----0----0-----|-----0----0-----|-0-0-----0-0----||
d|-0--------------|----------------|----------------|-0-0-----0-0----||
A|------------3---|-2--------------|----------------|-2-2-----2-2----||
E|----------------|------------3---|-3----------3---|-3-3-----3-3----||

PRECHORUS
e|----------------|----------------|----------------|----------------|
h|-3--------------|----------------|----------------|----------------|
g|-2--------------|----------------|----------------|----------5-----|
d|-0--------------|-3---3----------|-------------3--|-3-5-7----------|
A|------------3-5-|----------5-----|-----3---3-5----|----------------|
E|--------3-5-----|----------------|-3-5------------|----------------|

REFRÉN
B C Dmi
e|----------------|----------------|----------------|----------------|(3x)
h|----------------|----------------|----------------|-6---6----------|
g|-3---3--x-x-x-x-|-5---5--x-x-x-x-|-7---7------5-7-|----------7-----|
d|-3---3--x-x-x-x-|-5---5--x-x-x-x-|-7---7----------|----------------|
A|-1---1--x-x-x-x-|-3---3--x-x-x-x-|-5---5----------|----------------|
E|----------------|----------------|----------------|----------------|
B C A
e|----------------|----------------|----------------|----------------||
h|----------------|----------------|----------------|----------------||
g|-3---3--x-x-x-x-|-5---5--x-x-x-x-|----------------|----------------||
d|-3---3--x-x-x-x-|-5---5--x-x-x-x-|-7--------------|----------------||
A|-1---1--x-x-x-x-|-3---3--x-x-x-x-|-7--------------|----------------||
E|----------------|----------------|-5--------------|----------------||

 
»
Tvoje obľúbené položky
Tvoje obľúbené položky
»
Nové albumy interpreta
Nové albumy interpreta
VINYL Xindl-x Kvadratura zachranneho... [vinyl]
VINYL Kvadratura
zachranneho...
[vinyl]
CD Xindl-x Kvadratura zachranneho kruhu
CD Kvadratura
zachranneho
kruhu
5xCD Gott Karel Duety
5xCD Duety
2xCD Xindl-x Cechacek made
2xCD Cechacek made
2xCD+DVD Xindl X G2 acoustic stage/dvd
2xCD+DVD G2 acoustic
stage/dvd
2xCD+DVD Kryl Karel Karel kryl 70 - koncert - prazska lucerna
2xCD+DVD Karel kryl 70 -
koncert -
prazska lucerna

»
Najnovšie videá
Najnovšie videá

Xindl X Majáles 29.4.2011 Kluci na plaká

Xindl X Ústí nad Orlicí 3.6.2011 Kluci

Xindl X - Kluci na plakátě (Město v pohy

Xindl X - Docasna svata

Xindl X - Návod ke čtení manuálu

Xindl X cizinka
»
Najnavštevovanejšie piesne
Najnavštevovanejšie piesne
Popelka - akordy a text

V blbým věku - akordy a text

Cudzinka v tvojej zemi - akordy a text

V blbým věku - akordy a text

Na vodě - akordy

Barbína - akordy a text

Anděl - akordy a text

V blbým věku - text

Štědrý večer nastal - akordy a text

Chemie - akordy a text

viac




home | interpreti | register piesní | cd & dvd shop | pripomienky/nápady | kontakt | ochrana údajov | inzercia
Copyright © Pavol Bacigál, 2000-2017. Všetky práva vyhradené.
TOPlist