Xindl X

piesne (106)

  texty (78) / preklady (0)
  akordy (49) / taby (16)
  noty (0) / slideshow (0)

články (93)
fotogaléria
diskusia
videá
diskografia
v obchode
odkazy
koncerty
sťahuj



pridaj vlastný článok

Xindl X:
Multimilionář XINDL X za dva týdny vyráží na turné. - První dva pražské koncerty jsou již vyprodané! V Bratislavě zahraje 5. & 6. dubna, v Nové... - Turner


Xindl X:
Xindl X vyrazí na turné s kapelou i jen s kytarou - Xindl X vyrazí na turné s kapelou i jen s kytarou Autor: Iva Boková 01.11.2016 Tisk ... - abradio.cz


Xindl X:
XINDL X príde po prvýkrát s celou kapelou na Slovensko. - XINDL X na Slovensku hrá veľmi rád. A slovenskí fanúšikovia si to uvedomujú. Posledné rok... - M.Kucera


Xindl X:
Xindl X sa vracia na slovenské turné a ty môžeš vyhrať 3×2 vstupenky! - 4. októbra 2016 marekmuzika 8 Comments Xindl X vo svojich pesničkách často a rád provok... - music-zone.eu


Xindl X:
Xindl X: Forma oligarchie může být stejně nebezpečná jako komunismus - Písničkář Xindl X (37) přichází s novým albem. Jmenuje se Kvadratura záchranného kruhu a ... - novinky.cz


Xindl X:
Xindl X interview: V Česku se úspěch neodpouští, proto jsem napsal píseň o
poměřování pindíků
- Vydáno před 19 hodinami | autor: Jaroslav Noska Na nové desce Kvadratura záchranné... - ireport.cz


Shawn Mendes:
Nová alba: Xindl X, Shawn Mendes, Tři sestry či The Fellas - Blíží se konec roku a alba umělců výrazných jmen přicházejí na trh. V tomto týdnu upozorň...


Xindl X:
Xindl X upevňuje albem "Kvadratura záchranného kruhu" svoji pozici - Vydáno: 23.09.2016 09:00 v sekci Recenze - Milan Menčík Xindl X si na domácí hudební scé... - musicserver.cz


Xindl X:
RECENZE: Xindl X hází topícím se lidem záchranný kruh - Vydáno 23.09.2016 | autor: Hana Poláchová Páté studiové album Xindla X obsahuje de... - ireport.cz


Udg:
Během koncertu s Xindlem X a Voxelem pokřtili UDG své CD - Klatovy /FOTOGALERIE/ – Fanoušci Xindla X, Voxela a skupiny UDG si v sobotu přišli na své... - denik.cz


 

Xindl X

Fanúšikov: 24



A B C Č D E F G H CH I J K L Ľ M N O P Q R S Š T U V W X Y Z Ž



ako:
Xindl X - Bílej kůň
Xindl X - Bílej kůň

tlač

edituj
Poznámka: album Lá$ka (2012)
Připomínky: septikb@seznam.cz


Pesničku videlo 2334 návštevníkov.

Kvalita tabov : bez hodnotenia
Hodnotilo ľudí: 0 ohodnoť aj ty
Prispievateľ:

septik
INTRO
Ami AmaddF Ami
e|---0---1---0--------------|---0---1---0-0h1-0------------|
h|---1---1---1--------------|---1---1---1-------3-1-0h1p0--|
g|---2---2---2--------------|---2---2---2------------------|
d|-----------2---1h2-3-2-1h2|-----------2------------------|
A|-0---0-----0--------------|-0---0-----0------------------|
E|--------------------------|------------------------------|

Ami E
e|---0---1---0--------------|---0---1---0-----0---|
h|---1---1---1--------------|---1---1---1-----0---|
g|---2---2---2--------------|---2---2---2-----1---|
d|-----------2---1h2-3-2-1h2|-----------2-----2---|
A|-0---0-----0--------------|-0---0-----0-----2---|
E|--------------------------|-----------------0---|


RIFF
Ami AmaddF Dmi G Gsus4 Ami E
e|---0---1---0---0-|-----------------|---3---3---3---3-|---0---1---0---0-|
h|---1---1---1---0-|---3---1---0---1-|---3---1---0---0-|---1---1---1---0-|
g|---2---2---2---2-|---2---2---2---2-|---0---0---0---2-|---2---2---2---1-|
d|-----------------|-0---0---0---0---|-----------------|-----------2---2-|
A|-0---0---0---0---|-----------------|-----------------|-0---0-----0---2-|
E|-----------------|-----------------|-3---3---3---3---|---------------0-|

Ami AmaddF Dmi F Adim E
e|---0---1---0---0-|-----------------|---1---1---2---2-|-0---------------|
h|---1---1---1---0-|---3---1---0---1-|---1---1---1---1-|-0---------------|
g|---2---2---2---2-|---2---2---2---2-|---2---2---2---2-|-1---------------|
d|-----------------|-0---0---0---0---|-3---3---1---1---|-2---2-3-2-0-2---|
A|-0---0---0---0---|-----------------|-----------------|-2---------------|
E|-----------------|-----------------|-----------------|-0---------------|


REFRÉN
Dmi Ami D D# E
e|-1-1-1-1-1-1-----|-0-0-0-0-0-0-0-0-|-----------------|-----------------|
h|-3-3-3-3-3-3-----|-1-1-1-1-1-1-1-1-|-----------------|-----------------|
g|-2-2-2-2-2-2-----|-2-2-2-2-2-2-2-2-|-7-7-7-7-8-8-8-8-|-8-8-8-8-9-9-9-9-|
d|-0-0-0-0-0-0-----|-2-2-2-2-2-2-2-2-|-7-7-7-7-8-8-8-8-|-8-8-8-8-9-9-9-9-|
A|-------------3-2-|-0-0-0-0-0-0-0-0-|-5-5-5-5-6-6-6-6-|-6-6-6-6-7-7-7-7-|
E|-----------------|-----------------|-----------------|-----------------|

Dmi Ami D D# E
e|-1-1-1-1-1-1-----|-0-0-0-0-0-0-0-0-|-----------------|-0-0-0-----------|
h|-3-3-3-3-3-3-----|-1-1-1-1-1-1-1-1-|-----------------|-0-0-0-----------|
g|-2-2-2-2-2-2-----|-2-2-2-2-2-2-2-2-|-7-7-7-7-8-8-8-8-|-1-1-1-----------|
d|-0-0-0-0-0-0-----|-2-2-2-2-2-2-2-2-|-7-7-7-7-8-8-8-8-|-2-2-2-3-2-0-----|
A|-------------3-2-|-0-0-0-0-0-0-0-0-|-5-5-5-5-6-6-6-6-|-2-2-2-------3-2-|
E|-----------------|-----------------|-----------------|-0-0-0-----------|

 
»
Tvoje obľúbené položky
Tvoje obľúbené položky
»
Nové albumy interpreta
Nové albumy interpreta
CD Xindl-x Kvadratura zachranneho kruhu
CD Kvadratura
zachranneho
kruhu
5xCD Gott Karel Duety
5xCD Duety
2xCD Xindl-x Cechacek made
2xCD Cechacek made
2xCD+DVD Xindl X G2 acoustic stage/dvd
2xCD+DVD G2 acoustic
stage/dvd
2xCD+DVD Kryl Karel Karel kryl 70 - koncert - prazska lucern
2xCD+DVD Karel kryl 70 -
koncert -
prazska lucern
CD Xindl X Laska
CD Laska

»
Najnovšie videá
Najnovšie videá

Přízrak bílý kůň

Xindl X - Návod ke čtení manuálu

97/ DOKLOBOUKU - Bílý koně

Marie Rottrova Kun Bily.

Vít Pokorný & Lucie Zedníčková - Bílý ků

Xindl X - Pomeje
»
Najnavštevovanejšie piesne
Najnavštevovanejšie piesne
Popelka - akordy a text

V blbým věku - akordy a text

Cudzinka v tvojej zemi - akordy a text

V blbým věku - akordy a text

Na vodě - akordy

Barbína - akordy a text

Anděl - akordy a text

V blbým věku - text

Štědrý večer nastal - akordy a text

Chemie - akordy a text

viac




home | interpreti | register piesní | cd & dvd shop | pripomienky/nápady | kontakt | ochrana údajov | inzercia
Copyright © Pavol Bacigál, 2000-2017. Všetky práva vyhradené.
TOPlist