Dr. Pako

piesne (40)

  texty (28) / preklady (0)
  akordy (12) / taby (6)
  noty (0) / slideshow (0)

články (2)
fotogaléria
diskusia
videá
diskografia
v obchode
odkazy
koncerty
sťahuj



pridaj vlastný článok

Dr. Pako:
Dr. Pako opäť koncertuje a vôbec prvý krát vystúpi v Bratislave - hudba-music.sk


Dr. Pako:
Melodická punk rocková skupina Dr. Pako prvý krát “ordinuje” v Bratislave - musicpress.sk


 

Dr. Pako

Fanúšikov: 3



A B C Č D E F G H CH I J K L Ľ M N O P Q R S Š T U V W X Y Z Ž



ako:
Dr. Pako - Serieme Na Vás - INTRO + SOLO
Dr. Pako - Serieme Na Vás - INTRO + SOLO

tlač

edituj
Rok vzniku: 2002
Poznámka: by tapkooo

Pesničku videlo 2100 návštevníkov.

Kvalita tabov :
Hodnotilo ľudí: 1 ohodnoť aj ty
Prispievateľ:

tapkooo
  *** Autor textu: Dr. Pako *** Autor hudby: Dr. Pako
INTRO
e|-------------------
B|--10---------------
G|----10----12-------
D|------10-----------
A|-------------------
E|-------------------


SOLO

e|-------------------------------------------------------
B|-------------------------------------------------------
G|--10----10--12----12--14-12-10-----10-10-12-12/14-12-10
D|-----10--------10---------------10---------------------
A|-------------------------------------------------------
E|-------------------------------------------------------

e|-------------------------------------------------------
B|--10-10-10--11-11-11-----------------10----------------
G|--10-10-10--12-12-12--|3X|-NA KONCI--10----------------
D|-------------------------------------------------------
A|-------------------------------------------------------
E|-------------------------------------------------------

e|-------------------------------------------------------
B|-------------------------------------------------------
G|-------------------------------------------------------
D|--------------7----7-8-7--5-----5-5/7-5----------------
A|--3----3-5-3----5-----------8-8---------8--------------
E|----1--------------------------------------------------

e|-13-----15--13-----15--13----15-15/17-15--13-----------
B|----13---------13---------13---------------------------
G|-------------------------------------------------------
D|-------------------------------------------------------
A|-------------------------------------------------------
E|-------------------------------------------------------


 
»
Tvoje obľúbené položky
Tvoje obľúbené položky
»
Nové albumy interpreta
Nové albumy interpreta

»
Najnovšie videá
Najnovšie videá

Dr. Pako - Serieme na vás (live)

Dr. Pako - Vybral som sa (Live)

fylyp SKANDAL & dr.PAKO-/ Dievča...Live/

Začiatok Konca,Ostróv P,Dr Pako,Pearl Ha

Dr.Pako - Bolo to krásne - Help fest 201

Dr.Pako - Partia hej - Help fest 2014 (G
»
Najnavštevovanejšie piesne
Najnavštevovanejšie piesne



home | interpreti | register piesní | cd & dvd shop | pripomienky/nápady | kontakt | ochrana údajov | inzercia
Copyright © Pavol Bacigál, 2000-2017. Všetky práva vyhradené.
TOPlist