Judita Čeřovská

piesne (21)

  texty (18) / preklady (0)
  akordy (12) / taby (2)
  noty (1) / slideshow (0)

články (4)
fotogaléria
diskusia
videá
diskografia
v obchode
odkazy
koncerty
sťahuj



pridaj vlastný článok

Judita Čeřovská:
Různí - Anglické jahody - musiczone.cz


Judita Čeřovská:
Královny popu dobyly hrad Karlštejn - vecernik-praha.cz


Atomic Kitten:
Překvapení? Limp Bizkit kralují éteru! - Překvapení? Limp Bizkit kralují éteru! 17.04.2004 09:48, Luboš Kreč Tak jako každý tý... - musicserver.cz


Judita Čeřovská:
Staré hity jen tak nezestárnou - Staré hity jen tak nezestárnou CD tip Nová kompilace zpěvačky Judity Čeřovské nazva... - halonoviny.cz


 

Judita Čeřovská

Fanúšikov: 0



A B C Č D E F G H CH I J K L Ľ M N O P Q R S Š T U V W X Y Z Ž



ako:
Judita Čeřovská - Řekni kde ty kytky jsou - bass tab
Judita Čeřovská - Řekni kde ty kytky jsou - bass tab

tlač

edituj
Pesničku videlo 4365 návštevníkov.

Kvalita tabov : bez hodnotenia
Hodnotilo ľudí: 0 ohodnoť aj ty
Prispievateľ:

hippies
    F           Dmi       B        C        F
G:----------------------------------------------
D:--------7--------7----------------------------
A:--8--8----8-7-5-----5------8----------5-7-8---
E:----------------------8-6-----6--8------------

F Dmi B C F
G:----------------------------------------------
D:------------7---------------------------------
A:--8--8---5-----5------8---------------5-7-8---
E:-------8---------8-6-----6--8--6-8--8---------

F Dmi B C F
G:----------------------------------------------
D:------------7---------------------------------
A:--8--8---5-----5------8-------------5-7-8-----
E:-------8---------8-6-----6--8--8--8-----------

F Dmi B C
G:----------------------------------------------
D:------------7---------------------------------
A:--8--8---5-----5------8--------10-7-----------
E:-------8---------8-6-----6--8--------10-8-----

B F B C F C F
G:----------------------------------------------------------------
D:----------------------------------------------------------------
A:-----5--7--8-----------5--8-----10--7-------------3--3--3--8----
E:--6-----------8--5--6--------8---------1--1--1-1----------------

 
»
Tvoje obľúbené položky
Tvoje obľúbené položky
»
Nové albumy interpreta
Nové albumy interpreta
2xCD Vlach Karel Legenda
2xCD Legenda
CD Cerovska Judita Lady song / nejvetsi hity
CD Lady song /
nejvetsi hity

»
Najnovšie videá
Najnovšie videá

Řekni kde ty kytky jsou

Judita Čeřovská...Řekn i kde ty kytky js

Judita Čeřovská - Řekni kde ty kytky jso

The Rebels - Rebelové - Řekni, kde ty ky

Judita Čeřovská - Řekni kde ty kytky jso

Judita Čeřovská - Řekni, kde ty kytky js
»
Najnavštevovanejšie piesne
Najnavštevovanejšie piesne



home | interpreti | register piesní | cd & dvd shop | pripomienky/nápady | kontakt | ochrana údajov | inzercia
Copyright © Pavol Bacigál, 2000-2017. Všetky práva vyhradené.
TOPlist