Tleskač

piesne (61)

  texty (52) / preklady (0)
  akordy (25) / taby (3)
  noty (0) / slideshow (0)

články (42)
fotogaléria
diskusia
videá
diskografia
v obchode
odkazy
koncerty
sťahuj



pridaj vlastný článok

Cocotte Minute:
LIVE: Back to School v Brně - návrat do lavic ve velkém stylu - ireport.cz


Cocotte Minute:
Open air t-music Back to School právě startuje. Navštíví šest měst - ireport.cz


Horská Chata:
STARTUJE DALŠÍ ROČNÍK SOUTĚŽE NATRUC TALENT - V sobotu 25. srpna 2012 se na Kmochově ostrově v Kolíně uskuteční jubilejní 15. ročník ku...


Tleskač:
Řemeslo má zlaté dno - musicserver.cz


Tleskač:
Tleskač - Never Die Songs - muzikus.cz


Tleskač:
Tleskač - třetí řadovka - blackpointmusic.cz


Tleskač:
Tleskač má nové album - play.cz


Café Industrial:
Colours of Ostrava nabízí sympatický servis a pomoc pro zdravotně znevýhodněné
návštěvníky akce
- musiczone.cz


Arakain:
Přeštěnice dolaďují line-up - ireport.cz


I Am Ghost:
ČARODĚJÁLES 2010 - hudba-music.sk


 

Tleskač

Fanúšikov: 11



A B C Č D E F G H CH I J K L Ľ M N O P Q R S Š T U V W X Y Z Ž



ako:
Tleskač - Krutej John
Tleskač - Krutej John

tlač

edituj
Pesničku videlo 2628 návštevníkov.

Kvalita tabov :
Hodnotilo ľudí: 1 ohodnoť aj ty
Prispievateľ:

tomfor
                     Tleskač - Krutej John                               


Originál je v Cmi, takže hrát s kapodastrem na 3. pražci



Předehra/Recitativ/Dohra
Am
H Q Q Q. E Q Q
E||--------------------------------------||-----------------------|
B||--------------------------------------||----------0--1----3----|
G||---------------------------------0----||*--2-------------------|
D||----------------------------2---------||*----------------------|
A||--------------------------------------||-----------------------|
E||--------------------------------------||-----------------------|


Em Am Em
Q Q Q Q Q. E Q Q Q Q Q Q
----------------------|----------------------|----------------------|
--0-------------------|---------0------------|----------------------|
-------0---------0----|--2---------2----0----|-----------------0----|
------------2---------|----------------------|--2----0----2---------|
----------------------|----------------------|----------------------|
----------------------|----------------------|----------------------|


Am Em Am
Q. E Q Q Q Q Q E E Q Q Q Q
----------------------|-----------------------|-------5----5----3----|
---------0--1----3----|--0----1----3----1--3--|--5-------------------|
--2-------------------|-----------------------|----------------------|
----------------------|-----------------------|----------------------|
----------------------|-----------------------|----------------------|
----------------------|-----------------------|----------------------|


Em Am Em
H Q Q Q Q Q Q Q Q Q Q
---------------------|-------5----5----3----|----------------------|
--5-------------3----|--5-------------------|--5--------------0----|
---------------------|----------------------|-------2----2---------|
---------------------|----------------------|----------------------|
---------------------|----------------------|----------------------|
---------------------|----------------------|----------------------|


F G Am
Q. E E E Q Q Q Q Q Q. E Q Q
-----------------------|----------------------|----------------------|
--1------3--1--0-------|--0-------------------|---------0--1----3----|
------------------2----|-------0---------0----|--2-------------------|
-----------------------|------------2---------|----------------------|
-----------------------|----------------------|----------------------|
-----------------------|----------------------|----------------------|


Em Am Em Am
Q Q Q Q Q Q E E Q H Q Q
----------------------|-------0---------------|----------------------||
--0-------------------|------------3--0-------|----------------------||
-------0---------0----|--2---------------0----|--2-------------0----*||
------------2---------|-----------------------|-----------2---------*||
----------------------|-----------------------|----------------------||
----------------------|-----------------------|----------------------||


Q Q Q Q E E E E E E E E Q Q Q Q
----------------------|--------------------------|----------------------|
----------------------|--------------------------|----------------------|
--2----0--------------|--------------------------|--2----0--------------|
------------2----0----|-----------0--------0-----|------------2----0----|
----------------------|--3--0--3-----0--3-----3--|----------------------|
----------------------|--------------------------|----------------------|


E E E E H
-----------------------||
-----------------------||
-----------------------||
-----------0-----------||
--3--0--3-----0--------||
-----------------------||




Duration Legend
---------------
W - whole
H - half
Q - quarter
E - 8th
S - 16th
T - 32nd
X - 64th
. - note dotted

 
»
Tvoje obľúbené položky
Tvoje obľúbené položky
»
Nové albumy interpreta
Nové albumy interpreta
CD Tleskač Jan tleskač story/live at akropolis
CD Jan tleskač
story/live at
akropolis
CD Tleskač Na předměstí bory
CD Na předměstí
bory
CD Tleskač Ska z Česka
CD Ska z česka

»
Najnovšie videá
Najnovšie videá

Tleskač - Krutej John

tleskac live-krutej john

Krutej John

Čarodějáles 2010 - Tleskač

Tleskač - Jihlava

Tleskač - ÁDIÉ TOUR 2012 - Šeříkovka Plz
»
Najnavštevovanejšie piesne
Najnavštevovanejšie piesne



home | interpreti | register piesní | cd & dvd shop | pripomienky/nápady | kontakt | ochrana údajov | inzercia
Copyright © Pavol Bacigál, 2000-2017. Všetky práva vyhradené.
TOPlist