Dr. Pako

piesne (40)

  texty (28) / preklady (0)
  akordy (12) / taby (6)
  noty (0) / slideshow (0)

články (2)
fotogaléria
diskusia
videá
diskografia
v obchode
odkazy
koncerty
sťahuj



pridaj vlastný článok

Dr. Pako:
Dr. Pako opäť koncertuje a vôbec prvý krát vystúpi v Bratislave - hudba-music.sk


Dr. Pako:
Melodická punk rocková skupina Dr. Pako prvý krát “ordinuje” v Bratislave - musicpress.sk


 

Dr. Pako

Fanúšikov: 3



A B C Č D E F G H CH I J K L Ľ M N O P Q R S Š T U V W X Y Z Ž



ako:
Dr. Pako - Celý svet je tvoj
Dr. Pako - Celý svet je tvoj

tlač

edituj
Rok vzniku: 1999
Poznámka: by tapkooo

Pesničku videlo 1925 návštevníkov.

Kvalita tabov :
Hodnotilo ľudí: 1 ohodnoť aj ty
Prispievateľ:

tapkooo
  *** Autor textu: Dr. Pako *** Autor hudby: Dr. Pako

Dr.Pako - CELÝ SVET JE TVOJ
(Keby tu bolo lepšie, tak to ani nevydržíme; 1998)

INTRO
e|--------------------------
B|--------------------------
G|--------------------------
D|-10-8-10-8-10-8--------10-
A|-8--6--8-6-8--6--[3x]--8--
E|--------------------------

[F] [Dmi] [A] [B] [C]

SLOHA
[F]
Značkovo oblečený,
[Dmi]
zlatom si ovešaný,
[A]
lákavo navoňaný,
[B] [C]
celý svet teraz je tvoj!
Vždy zblbneš kráskam hlavu,
každá chce žiť život v blahu
chvíľu ťa pobaví,
a nahúkaj Ber sa stranou!

Bavoráka naštartuješ,
nad všetkých sa vyťahuješ
do rána po baroch, flámuješ,
to ťa baví;
Vôbec nič neriskuješ,
za ničím nebanuješ,
fotrovci zazobaní,
vždy čo si chcel to ti dali!

REF.
[F] [C] [Dmi]
Cítiš sa jak malý boh,
[B]
si niekde v nebi,
[C]
ale všetko nie je krásne!

[F] [C] [Dmi]
Lásku, zdravie, priateľov,
[G]
za prachy nekúpiš,
[B] [C]
to dúfam je ti jasné!

2.
Zas drahý mobil v dlani,
väčšieho gangstra neni,
biješ sa do pŕs, kto si,
čo máš, kde všade bol si,
z oblečenia máš handry
bohatstvo je ti vzorom,
netušíš čo je za tým,
vždy si bol tupým volom!

SOLO
e|-----------------------------13-----13---
B|---------------------------13--13-13--13-
G|-10--9-10-9-10--10-9-10------------------
D|------------------------12---------------
A|-----------------------------------------
E|-----------------------------------------

e|---------------------15-------------
B|---------------15--15--15--13-15-13-
G|-10--9-10-9-10----------------------
D|------------------------------------
A|------------------------------------
E|------------------------------------

e|--------------------------
B|--------------------------
G|-14--15-14-12----------12-
D|--------------15--[3x]----
A|--------------------------
E|-------------------------- [B] [C]

Ref.

 
»
Tvoje obľúbené položky
Tvoje obľúbené položky
»
Nové albumy interpreta
Nové albumy interpreta

»
Najnovšie videá
Najnovšie videá

Dr.Pako - Vymaluj Si Svet

Dr.Pako - Tvoje boty

Dr. Pako-Nepamätám si

Dr.Pako - Slobodný

Dr.Pako - Serieme na vas

Dr.Pako - Baťovka
»
Najnavštevovanejšie piesne
Najnavštevovanejšie piesne



home | interpreti | register piesní | cd & dvd shop | pripomienky/nápady | kontakt | ochrana údajov | inzercia
Copyright © Pavol Bacigál, 2000-2017. Všetky práva vyhradené.
TOPlist