Lucie

piesne (141)

  texty (113) / preklady (1)
  akordy (93) / taby (17)
  noty (2) / slideshow (0)

články (213)
fotogaléria
diskusia
videá
diskografia
v obchode
odkazy
koncerty
sťahuj



pridaj vlastný článok

David Koller:
City Arena vypraví na koncert skupiny Lucie do Trnavy mimoriadny vlak - včera o 17:00 | redakcia Trnavská City Arena pripravila pre fanúšikov českej rockovej ... - zoznam.sk


Lucie:
CITY ARENA plní sľuby: Česká Lucie bude tento rok verejne koncertovať iba na
Štadióne Antona Malatinského.
- CITY ARENA – Štadión Antona Malatinského privíta v sobotu 3. júna 2017 o 21:00 česko-sl... - L.Toth


Lucie:
LIVE: Fanoušci Lucie dostali v Bratislavě zase ty největší hity. Už by to ale
chtělo novinky
- Vydáno 23.06.2016 | autor: redakce Facebook9 Twitter0 Google+0 Po dvouletém půstu s... - ireport.cz


Lucie:
S Lucií v Plzni zahráli zakládající členové včetně Michala Penka - Aktualizace: 17.06.2016 23:20 Vydáno: 17.06.2016, 23:15 Sledovat zprávu foto Digsb... - ceskenoviny.cz


Lucie:
LIVE: Třicetiny Lucie v Plzni: Fanoušci při výtečné show jásali tak, že
překřičeli i kapelu
- Vydáno 18.06.2016 | autor: redakce Facebook330 Twitter0 Google+0 Skupina Lucie slav... - ireport.cz


Lucie:
Lucie v Plzni oslavila třicetiny: Narvaný amfiteátr bouřil! - Vydáno 2016-06-17 23:36:11 Facebook150 Twitter0 Google+0 Lucie zahájila v Plzni tur... - ireport.cz


David Koller:
Skupina Lucie začala své turné a oslavy třicetin v nacpaném Lochotíně - AKTUALIZOVÁNO 17. 6. 2016 Kapela Lucie. Kapela Lucie. | Foto: Karel Šanda V lochotínsk... - aktualne.cz


Lucie:
Michal Dvořák: Zjistili jsme, že role kapely Lucie je v našich životech zásadní - Po 7 letech na Fakultě tělesné výchovy a sportu se školou praštil. „Chtěll jsem se věno... - rozhlas.cz


Lucie:
Lucie se v Brně přesouvá na Výstaviště. Známe časový harmonogram turné! - Vydáno před 15 hodinami | autor: redakce Facebook11 Twitter0 Google+0 Pro velký záj... - ireport.cz


Korben Dallas:
Lucie oznamuje hosta svých letních koncertů: ze Slovenska dorazí Korben Dallas! - Vydáno 24.05.2016 | autor: redakce Facebook40 Twitter0 Google+0 Bratislavské trio K... - ireport.cz


 

Lucie

Fanúšikov: 84



A B C Č D E F G H CH I J K L Ľ M N O P Q R S Š T U V W X Y Z Ž



ako:
Lucie - Tlak mám! - basové taby
Lucie - Tlak mám! - basové taby

tlač

edituj
Pesničku videlo 3911 návštevníkov.

Kvalita tabov : bez hodnotenia
Hodnotilo ľudí: 0 ohodnoť aj ty
Prispievateľ:

Hudino
          Intro

G|--------77-6-----------
D|-----------------------
A|----4\5--------5h7-7---
E|-00----------0---------
SS S PP P S S S

Verse

G|------------------------
D|------------------------
A|----4h5-55-4---5h7-77---
E|-00----------0----------


Bridge

G|-----------------------
D|-----------------------
A|----7xx5xx4x-----5h7---
E|-00---------x5x7-------

-----------------------
-----------------------
----7xx5xx4x-----------
-00---------x5xx-5h7---

---------------------------------
-----------------------5---------
----7xx5xx4x----xx-5h7---7-5-0---
-00---------x5xx-----------------


First Chorus

G|--------------------------------
D|----10---12-10-10----10-10h12---
A|------------------00------------
E|-8x----8------------------------


------------------------------------
-------------------5-0-7-77-5-------
-----------3-0-5-0------------7p5---
-55--0-5-0--------------------------


Second and Third Chorus

G|--------------------------------
D|----10---12-10-10----10-10h12---
A|------------------00------------
E|-8x----8------------------------

-------------------------
-------------------------
------x-3/5-77-5-3-------
-5x5x--------------5-3---

----------------------------
----10-----14p12/10---------
--------------------12-10---
-8x----8-8------------------

--------------------------
----------5-5-------------
-----x3h5-----7-5-0-12/---
-5-5----------------------


Outro

G|------------------
D|------------0h2---
A|------------------
E|-0x0h3-0x0x-------
SSS SSSS P

------------------
------------2p0---
------------------
-0x0h3-0x0x-------
SSS SSSS P



h=hammer-on

p=pull-off

x=death note

\=slide down

/=slide up

S=slap

P=pop

 
»
Tvoje obľúbené položky
Tvoje obľúbené položky
»
Nové albumy interpreta
Nové albumy interpreta
VINYL Lucie In the sky [vinyl]
VINYL In the sky
[vinyl]
VINYL Lucie Lucie [vinyl]
VINYL Lucie [vinyl]
CD Lucie Vetsi nez male mnozstvi..
CD Vetsi nez male
mnozstvi..
CD Lucie Slunecnice
CD Slunecnice
CD Lucie Pohyby
CD Pohyby
CD Lucie In the sky
CD In the sky

»
Najnovšie videá
Najnovšie videá

Eugenovo OHLÉDNUTÍ ve Velrybě 2. 6. 2015

Rihanna - Talk That Talk (Audio) ft. JAY

Justin Bieber-As Long As You Love Me + č

Michal Penk - Hlaď mě

Vysoký krvný tlak

Uzdravme se sami - 53.díl - LTV PLUS - L
»
Najnavštevovanejšie piesne
Najnavštevovanejšie piesne
Chci zas v tobě spát - akordy a text

Amerika - akordy a text

Sen - akordy a text

Chci zas v tobě spát - přesně - akordy a text

Amerika - akordy a text

Černí andělé - akordy

Medvídek - akordy a text

Černí andělé - akordy a text

Amerika - upraveno - přesně! - akordy

Lucie - akordy a text

viac




home | interpreti | register piesní | cd & dvd shop | pripomienky/nápady | kontakt | ochrana údajov | inzercia
Copyright © Pavol Bacigál, 2000-2017. Všetky práva vyhradené.
TOPlist