Deratizéři

piesne (18)

  texty (12) / preklady (0)
  akordy (8) / taby (3)
  noty (0) / slideshow (0)

články (2)
fotogaléria
diskusia
videá
diskografia
v obchode
odkazy
koncerty
sťahuj



pridaj vlastný článok

Deratizéři:
Oceloví Ptáci Tour 2012! - Oceloví Ptáci Tour 2012! „Oceloví ptáci tour 2013“ zakázanÝovoce a Totální nasazení ... - punk.cz


Deratizéři:
Deratizéři: Prostě deratizujeme muzikou - ireport.cz


-123 Minut:
České hudební festivaly 2004 - Hudební festivaly 2004 16. května 2004, 06:01 Lonny Venku se nám všechno pěkně ze... - musicservice.cz


Deratizéři:
Melodický punkrock zazní Skrýchovem - Melodický punkrock zazní Skrýchovem - 20.4.2004 Titulek by tentokrát mohl znít třeba ... - ceskyrock.cz


 

Deratizéři

Fanúšikov: 0



A B C Č D E F G H CH I J K L Ľ M N O P Q R S Š T U V W X Y Z Ž



ako:
Deratizéři - O krásce s vuvuzelou
Deratizéři - O krásce s vuvuzelou

tlač

edituj
Pesničku videlo 2301 návštevníkov.

Kvalita tabov : bez hodnotenia
Hodnotilo ľudí: 0 ohodnoť aj ty
Prispievateľ:

Chosse
AKORDY: SKLOKA F, Dmi, B, C 
REF.: F, B, G, C 3X
F, C, F

SÓLO FLÉTNA
e|--------------------------------------------
h|-10---11-10-8--8---------------10-11-10-8---
g|-------------10-------10-10-10--------------
D|-------------------10-----------------------
A|--------------------------------------------
E|--------------------------------------------

e|--------------------------------------------
h|-10---11-10-8--8---------------8-10-8-------
g|-------------10-------10-10-10-------10-----
D|-------------------10-----------------------
A|--------------------------------------------
E|--------------------------------------------

SÓLO KYTARA
e|--------------8-8-6-----------------8-8-6---
h|-10--10-8-10-------10--10--10-8-10-------10-
g|--------------------------------------------
D|--------------------------------------------
A|--------------------------------------------
E|--------------------------------------------

e|-8---8-10-8-------------8-----------------------------
h|-----------11-10-11---11-11-10-8-10---10-11-10-8--8---
g|------------------------------------------------10----
D|---------------------------------------------------10-
A|------------------------------------------------------
E|------------------------------------------------------

e|------------------------------------------------------
h|---8-10-11-10-8---------------------------------------
g|-10------------10-------------------------------------
D|------------------------------------------------------
A|------------------------------------------------------
E|------------------------------------------------------

 
»
Tvoje obľúbené položky
Tvoje obľúbené položky
»
Nové albumy interpreta
Nové albumy interpreta

»
Najnovšie videá
Najnovšie videá

Deratizéři- O krásce s vuvuzelou (Live R

Deratizéři O krásce s vuvuzelou

Deratizéři - Topfest 2012 @ O krásce s

Deratizéři - O krásce s vuvuzelou (Rock

Deratizéři - O krásce s vuvuzelou (Jindř

DERATIZÉŘI - ROZHOVOR NA RÁDIU KISS DELT
»
Najnavštevovanejšie piesne
Najnavštevovanejšie piesne



home | interpreti | register piesní | cd & dvd shop | pripomienky/nápady | kontakt | ochrana údajov | inzercia
Copyright © Pavol Bacigál, 2000-2017. Všetky práva vyhradené.
TOPlist