Katapult

piesne (178)

  texty (129) / preklady (1)
  akordy (81) / taby (26)
  noty (1) / slideshow (0)

články (56)
fotogaléria
diskusia
videá
diskografia
v obchode
odkazy
koncerty
sťahuj



pridaj vlastný článok

Katapult:
Katapult ohlásili nový album - 23. srpna 2016 skupina Katapult ohlásila na svém Facebooku termín vydání nového alba. Al...


Katapult:
Fotoreport - Katapult v Nitre - Katapult, jednoducho, Katapult, tak táto skupina nás všetkých zase po mnohých rokoch, ako... - Milan Gróf


Ac/dc:
KATAPULT oslavuje a vydáva CD - Tento rok je pre Oldu Říhu rokom jubilejným: oslávi 65.narodeniny a uplynie 50 rokov , ... - EMI Music


Katapult:
Nová alba: Katapult a Sade naživo, John Mayer možná naposledy - novinky.cz


Katapult:
Katapult zahrál na Nové scéně a představil DVD Rock života - ceskenoviny.cz


Katapult:
Anketa: Katapult je pořád svůj. Bohužel - centrum.cz


Katapult:
Olda Říha: Uvědomil jsem si, že vlastně začínám znovu, od nuly - denik.cz


Katapult:
Milovaný i nenáviděný Katapult zahraje v Národním divadle - ceskenoviny.cz


Katapult:
Katapult to dá lidem tvrdě do huby na Nové scéně - centrum.cz


Katapult:
Katapult představí dvě úplně nové písničky - denik.cz


 

Katapult

Fanúšikov: 29



A B C Č D E F G H CH I J K L Ľ M N O P Q R S Š T U V W X Y Z Ž



ako:
Katapult - Jsou špatný dny - komplet
Katapult - Jsou špatný dny - komplet

tlač

edituj
Rok vzniku: 1995
Pesničku videlo 3955 návštevníkov.

Kvalita tabov : bez hodnotenia
Hodnotilo ľudí: 0 ohodnoť aj ty
Prispievateľ:

Charv
  *** Autor textu: Katapult *** Autor hudby: Katapult
Jen jednotlivé riffy + sólo, občas je tam drobná změna, to už si odposlechnete. :-)

Emi Ami A G F# G D Emi
e----------0----------0-------------------
h----------0----------1-------------------
g----------0-------2---------------7\-----
d-------2----------2-----7-5-4-5---7\---2-
a-3-2---2----3-2---0-----7-5-4-5---5\---2-
e-----3-0--------3-------5-3-2-3--------0-

p.m. p.m. p.m. p.m. p.m. p.m.
e----------------------------------------
h----------------------------------------
g----------------------------------------
d-5-55-5-55-5-55-5-55-7-77-7-77-7\--2----
a-5-55-5-55-5-55-5-55-7-77-7-77-7\--2----
e-3-33-3-33-3-33-3-33-5-55-5-55-5\--0----

e--------------------------------------------------------------
h--------------------------------------------------------------
g--------------------------------------------------------------
d-------------------5-5---------------5--9-7--7h9p7-5----------
a--5h7----------5-7-----7---------5-7------------------5h6-7---
e---------5h6h7-------------5h6h7------------------------------

e-------------------------------------------------------------------
h-------------------------------------------------------------------
g-------------------------------------------------------------------
d-----------5---------------5-7-5-7/9-----------7/9-7p5h7--5--------
a-------5-7-----7---------5-------------------5--------------5h6-7--
e-5h6h7-------------5h6h7---------------5h6h7-----------------------

e-----------------------------------------------------------
h-----------------15----------------------------------------
g-----12-14-14^16----14^16-------12-14-14^16^14-12-14-14^16-
d--14-------------------------14----------------------------
a-----------------------------------------------------------
e-----------------------------------------------------------

e-------------------------------------------------------------------
h---------------------------------------12-15-15^17^15-12-15-15^17--
g-^16-16-16^14-12-14---12-------------------------------------------
d---------------------------12h13-14--------------------------------
a-------------------------------------------------------------------
e-------------------------------------------------------------------

e------------------------------------------------------------
h-^17-17-17^15-12-15^17-----15^17^15-------------------------
g------------------------------------16--14h16p14---12-------
d--------------------------------------------------------14--
a------------------------------------------------------------
e------------------------------------------------------------

 
»
Tvoje obľúbené položky
Tvoje obľúbené položky
»
Nové albumy interpreta
Nové albumy interpreta
VINYL Katapult Kladivo na zivot [vinyl]
VINYL Kladivo na zivot
[vinyl]
2xDVD Katapult Pohadka tisice a jedne noci
2xDVD Pohadka tisice a
jedne noci
CD Katapult 50 let hraju rock
CD 50 let hraju
rock
CD  Katapult Made in rock'n'roll - live futurum praha
CD Made in
rock'n'roll -
live futurum
praha
CD Katapult 2010 Radosti zivota
CD Radosti zivota
6xCD Katapult 6cd box
6xCD 6cd box

»
Najnovšie videá
Najnovšie videá

Katapult - Jsou spatny dny

Jsou Spatny dny

Katapult Hit album 1

Katafurt - záznam z 4.7.2015 - Jsou špa

KATAPULT -Špatný dny - D.V.

Olomoucké Dožínky 2015 - Katapult
»
Najnavštevovanejšie piesne
Najnavštevovanejšie piesne
Hlupák váhá - akordy a text

Hlupák váhá - akordy a text

Blues - spravne - akordy a text

Vojín XY - akordy a text

- akordy a text

Katapult - akordy a text

Vojín XY-ORIGINÁL - akordy a text

Někdy příště - akordy a text

Já nesnídám sám - akordy a text

Hlupák váhá - pro sólovou kytaru - taby

viac




home | interpreti | register piesní | cd & dvd shop | pripomienky/nápady | kontakt | ochrana údajov | inzercia
Copyright © Pavol Bacigál, 2000-2017. Všetky práva vyhradené.
TOPlist