The Paranoid

piesne (53)

  texty (39) / preklady (0)
  akordy (8) / taby (12)
  noty (0) / slideshow (0)

články (16)
fotogaléria
diskusia
videá
diskografia
v obchode
odkazy
koncerty
sťahuj



pridaj vlastný článok

Asenth:
Finále Rockovej maturity 2016 preverí tvrdosť kategórie Hard & Heavy - včera o 17:30 | redakcia Súťaž neprofesionálnych hudobníkov Rocková maturita sa blíži ... - zoznam.sk


Chinaski:
Hudobníci budú na TOPFEST-e skladať rockovú maturitu. V porote sú aj Zuzana
Smatanová, či Polemic!
- Published by MUSIC ZONE on 24. marca 2016 | Komentáre vypnuté na Hudobníci budú na TOPFES... - music-zone.eu


The Paranoid:
Na Rock for People prídu aj The Paranoid - Na český festival Rock for People príde aj slovenská kapela The Paranoid. Do programu pod...


Smola A Hrušky:
Smola a Hrušky a The Paranoid odpálili turné vypredaným halloweenskym koncertom! - ... - livemusic.sk


The Paranoid:
Slovenští Paranoid hosty Rockle - Paranoid a jejich deska Sedem - Foto: Jiří Matějů Paranoid a jejich deska SedemFoto: J... - rozhlas.cz


Arakain:
Co vychází v březnu 2014: přehled novinek - Co vychází v březnu: přehled novinek];" style="display: none;">  ... - IREPORT


The Paranoid:
Skupina The Paranoid má nový album a klip k piesni Nikdy nezabudnem - ... - spravy.pozri.sk


The Paranoid:
Skupina The Paranoid sa ocitla na psychiatrii - Na psychiatrickom oddelení v Prešove koncom minulého roka náhle hospitalizovali Igora Bel...


Black Sabbath:
Paranoid, Iron Man nebo War Pigs naživo: přijedou Black Sabbath - Paranoid, Iron Man nebo War Pigs naživo: přijedou Black Sabbath];" style="display: none;"... - IREPORT


The Paranoid:
The Paranoid - Dva svety - Slovenská kapela The Paranoid začíná nabírat na slávě i mimo svou zemi. Svým mixem em... - rockmag.cz


 

The Paranoid

Fanúšikov: 30



A B C Č D E F G H CH I J K L Ľ M N O P Q R S Š T U V W X Y Z Ž



ako:
The Paranoid - Horím
The Paranoid - Horím

tlač

edituj
Pesničku videlo 2556 návštevníkov.

Kvalita tabov : bez hodnotenia
Hodnotilo ľudí: 0 ohodnoť aj ty
Prispievateľ:

Slavomír Mikolaj
  *** Autor textu: The Paranoid *** Autor hudby: The Paranoid
     E  E  E  Q    Q    E     E  Q    Q    Q    E     E  Q    Q    Q    E   
D||------------------------|-----------------------|-----------------------|
A||------------------------|-----------------------|-----------------------|
F||--7--7--7---------------|-----------------------|-----------------------|
C||--7--7--7--0----0----0--|--L--0----0----0----0--|--L--0----3----3----3--|
G||--5--5--5--0----0----0--|--L--0----0----0----0--|--L--0----3----3----3--|
C||-----------0----0----0--|--L--0----0----0----0--|--L--0----3----3----3--|


E Q Q E E E E E E Q Q E E Q Q Q E
---------------------------|------------------------|-----------------------|
---------------------------|------------------------|-----------------------|
---------------------------|------------------------|-----------------------|
--L--3----10---------------|-----------0----0----0--|--L--0----0----0----0--|
--L--3----10--------10-----|--8--8--8--0----0----0--|--L--0----0----0----0--|
--L--3----10----10------8--|-----------0----0----0--|--L--0----0----0----0--|


E Q Q Q E E Q Q E E E
-----------------------|----------------------------|
-----------------------|----------------------------|
-----------------------|----------------------------|
--L--0----3----3----3--|--L--3----10----10--10--10--|
--L--0----3----3----3--|--L--3----10----10--10--10--|
--L--0----3----3----3--|--L--3----10----10--10--10--|


E E E E E Q E E E E Q Q E
-----------------------------|------------------------|
-----------------------------|------------------------|
-----------------------------|------------------------|
--10--10--10--10-------------|------------------------|
--10--10--10--10-------------|------------------------|
--10--10--10--10--8--0----0--|--------8--0----0-------|


E E E E E Q E E E E Q Q. E E E E E Q E
-------------------------||------------------------|-------------------------|
-------------------------||------------------------|-------------------------|
-------------------------||*-----------------------|-------------------------|
-------------------------||*-----------------------|-------------------------|
-------------------------||------------------------|--8--8--8--8-------------|
--8--0--8--0--8--0----0--||---------8--0----0------|--L-----------8--0----0--|


E E E Q Q E E E E E E E E E E E E E E E E E
------------------------|--------------------------|--------------------------|
------------------------|--------------------------|--------------------------|
------------------------|--------------------------|--------------------------|
------------------------|--------------3--3--3--3--|--3--3--3--3--5--5--5--5--|
------------------------|--------------3--3--3--3--|--3--3--3--3--5--5--5--5--|
--------8--0----0-------|--8--0--8--0--3--3--3--3--|--3--3--3--3--5--5--5--5--|


E E E E E Q E E E E Q Q E E E E E E Q E
-------------------------|------------------------|-------------------------|
-------------------------|------------------------|-------------------------|
-------------------------|------------------------|-------------------------|
--5--5--5--5-------------|------------------------|-------------------------|
--5--5--5--5-------------|------------------------|-------------------------|
--5--5--5--5--8--0----0--|--------8--0----0-------|--8--0--8--0--8--0----0--|


E E E Q Q. E E E E E Q E E E E Q Q E
-----------------------|-------------------------|------------------------|
-----------------------|-------------------------|------------------------|
-----------------------|-------------------------|------------------------|
-----------------------|-------------------------|------------------------|
-----------------------|--8--8--8--8-------------|------------------------|
--------8--0----0------|--L-----------8--0----0--|--------8--0----0-------|


E E E E E E E E E E E E E E E E
--------------------------|--------------------------|
--------------------------|--------------------------|
--------------------------|--------------------------|
--------------3--3--3--3--|--3--3--3--3--5--5--5--5--|
--------------3--3--3--3--|--3--3--3--3--5--5--5--5--|
--8--0--8--0--3--3--3--3--|--3--3--3--3--5--5--5--5--|


E E E E E E E E E E E E E E E E
--------------------------|--------------------------|
--------------------------|--------------------------|
--------------7--7--7--7--|--7--7--7--7--7--7--7--7--|
--5--5--5--5--7--7--7--7--|--7--7--7--7--7--7--7--7--|
--5--5--5--5--5--5--5--5--|--5--5--5--5--5--5--5--5--|
--5--5--5--5--------------|--------------------------|


E E E E E E E E E E E E E E E E E Q Q Q E
--------------------------|--------------------------|-----------------------|
--------------------------|--------------------------|-----------------------|
--7--7--7--7--7--7--7--7--|--7--7--7--7--x--x--x--x--|--x--x-----------------|
--7--7--7--7--7--7--7--7--|--7--7--7--7--x--x--x--x--|--x--x----0----0----0--|
--5--5--5--5--5--5--5--5--|--5--5--5--5--x--x--x--x--|--x--x----0----0----0--|
--------------------------|--------------------------|----------0----0----0--|


E Q Q Q E E Q Q Q E E Q Q E E E
-----------------------|-----------------------|---------------------------|
-----------------------|-----------------------|---------------------------|
-----------------------|-----------------------|---------------------------|
--L--0----0----0----0--|--L--0----3----3----3--|--L--3----10---------------|
--L--0----0----0----0--|--L--0----3----3----3--|--L--3----10--------10-----|
--L--0----0----0----0--|--L--0----3----3----3--|--L--3----10----10------8--|


E E E Q Q E E Q Q Q E E Q Q Q E
------------------------|-----------------------|-----------------------|
------------------------|-----------------------|-----------------------|
------------------------|-----------------------|-----------------------|
-----------0----0----0--|--L--0----0----0----0--|--L--0----3----3----3--|
--8--8--8--0----0----0--|--L--0----0----0----0--|--L--0----3----3----3--|
-----------0----0----0--|--L--0----0----0----0--|--L--0----3----3----3--|


E Q Q E E E E E E Q Q E E Q Q Q E
---------------------------|------------------------|-----------------------|
---------------------------|------------------------|-----------------------|
---------------------------|------------------------|-----------------------|
--L--3----10---------------|-----------0----0----0--|--L--0----0----0----0--|
--L--3----10--------10-----|--8--8--8--0----0----0--|--L--0----0----0----0--|
--L--3----10----10------8--|-----------0----0----0--|--L--0----0----0----0--|


E Q Q Q E E Q Q E E E
-----------------------|----------------------------|
-----------------------|----------------------------|
-----------------------|----------------------------|
--L--0----3----3----3--|--L--3----10----10--10--10--|
--L--0----3----3----3--|--L--3----10----10--10--10--|
--L--0----3----3----3--|--L--3----10----10--10--10--|


E E Q E E E E E E E E E E E E
--------------------------------|----------------------------------|
--------------------------------|----------------------------------|
----------------10--10--10--10--|--10--10--10--10--10--10--10--10--|
--10--10--10-----8---8---8---8--|---8---8---8---8---8---8---8---8--|
--10--10--10-----8---8---8---8--|---8---8---8---8---8---8---8---8--|
--10--10--10-----8---8---8---8--|---8---8---8---8---8---8---8---8--|


E E E E E E E E E E E E E E E E
----------------------------------|----------------------------------|
----------------------------------|----------------------------------|
--10--10--10--10--12--12--12--12--|--12--12--12--12--12--12--12--12--|
---8---8---8---8--10--10--10--10--|--10--10--10--10--10--10--10--10--|
---8---8---8---8--10--10--10--10--|--10--10--10--10--10--10--10--10--|
---8---8---8---8--10--10--10--10--|--10--10--10--10--10--10--10--10--|


E E E E E Q E E E E E E Q E
-----------------------------|-------------------------|
-----------------------------|-------------------------|
--12--12--12--12-------------|-------------------------|
--10--10--10--10-------------|-------------------------|
--10--10--10--10-------------|-------------------------|
--10--10--10--10--8--0----0--|--------8--0--L--0-------|


E E Q E Q E E E E E E Q E E E E E E Q E
--------------------------|-------------------------|-------------------------|
--------------------------|-------------------------|-------------------------|
--------<>9---------------|-------------------------|-------------------------|
--------------------------|-------------------------|-------------------------|
--------------------------|-------------------------|-------------------------|
--8--0---------8--0----0--|--------8--0--L--0-------|--8--0--8--0--8--0----0--|


E E E E E Q. E E E E E Q E E E E Q Q E
------------------------|-------------------------|------------------------|
------------------------|-------------------------|------------------------|
------------------------|-------------------------|------------------------|
------------------------|-------------------------|------------------------|
------------------------|--8--8--8--8-------------|------------------------|
--------8--0--L--0------|--L-----------8--0----0--|--------8--0----0-------|


E E E E E E E E E E E E E E E E E E E E E Q E
--------------------------|--------------------------|-------------------------|
--------------------------|--------------------------|-------------------------|
--------------------------|--------------------------|-------------------------|
--------------3--3--3--3--|--3--3--3--3--5--5--5--5--|--5--5--5--5-------------|
--------------3--3--3--3--|--3--3--3--3--5--5--5--5--|--5--5--5--5-------------|
--8--0--8--0--3--3--3--3--|--3--3--3--3--5--5--5--5--|--5--5--5--5--8--0----0--|


E E E E E Q E E E E E E Q E E E E E E Q.
-------------------------|-------------------------|------------------------|
-------------------------|-------------------------|------------------------|
-------------------------|-------------------------|------------------------|
-------------------------|-------------------------|------------------------|
-------------------------|-------------------------|------------------------|
--------8--0--L--0-------|--8--0--8--0--8--0----0--|--------8--0--L--0------|


E E E E E Q E E E E Q Q E E E E E E E E E
-------------------------|------------------------|--------------------------|
-------------------------|------------------------|--------------------------|
-------------------------|------------------------|--------------------------|
-------------------------|------------------------|--------------3--3--3--3--|
--8--8--8--8-------------|------------------------|--------------3--3--3--3--|
--L-----------8--0----0--|--------8--0----0-------|--8--0--8--0--3--3--3--3--|


E E E E E E E E E E E E E E E E E Q E E Q E
--------------------------|--------------------------|------------------------|
--------------------------|--------------------------|------------------------|
--------------------------|--------------7--7--7-----|------------------------|
--3--3--3--3--5--5--5--5--|--5--5--5--5--7--7--7--0--|--L--0----0--L--0----0--|
--3--3--3--3--5--5--5--5--|--5--5--5--5--5--5--5--0--|--L--0----0--L--0----0--|
--3--3--3--3--5--5--5--5--|--5--5--5--5-----------0--|--L--0----0--L--0----0--|


E Q E E Q E E Q E E Q E E E E E E E E E
------------------------|-------------------------|----------------------------|
------------------------|-------------------------|----------------------------|
------------------------|-------------------------|----------------------------|
--L--0----0--L--0----3--|--L--3----3--L--3----10--|--L----------------------0--|
--L--0----0--L--0----3--|--L--3----3--L--3----10--|--L------10-----8--8--8--0--|
--L--0----0--L--0----3--|--L--3----3--L--3----10--|--L--10------8-----------0--|


E Q E E Q E E Q E E Q E E Q E E Q E
------------------------|------------------------|-------------------------|
------------------------|------------------------|-------------------------|
------------------------|------------------------|-------------------------|
--L--0----0--L--0----0--|--L--0----0--L--0----3--|--L--3----3--L--3----10--|
--L--0----0--L--0----0--|--L--0----0--L--0----3--|--L--3----3--L--3----10--|
--L--0----0--L--0----0--|--L--0----0--L--0----3--|--L--3----3--L--3----10--|


E E E E E E E E E Q E E Q E E Q E E Q E
----------------------------|------------------------|------------------------|
----------------------------|------------------------|------------------------|
----------------------------|------------------------|------------------------|
--L----------------------0--|--L--0----0--L--0----0--|--L--0----0--L--0----3--|
--L------10-----8--8--8--0--|--L--0----0--L--0----0--|--L--0----0--L--0----3--|
--L--10------8-----------0--|--L--0----0--L--0----0--|--L--0----0--L--0----3--|


E Q E E Q E E E E E E E Q
-------------------------|-------------------------------|
-------------------------|-------------------------------|
-------------------------|-------------------------------|
--L--3----3--L--3----10--|--L--10--10--10--10--10--10----|
--L--3----3--L--3----10--|--L--10--10--10--10--10--10----|
--L--3----3--L--3----10--|--L--10--10--10--10--10--10----|


E E E E E E E E E E E E E E E E
----------------------------------|----------------------------------|
----------------------------------|----------------------------------|
--10--10--10--10--10--10--10--10--|--10--10--10--10--10--10--10--10--|
---8---8---8---8---8---8---8---8--|---8---8---8---8---8---8---8---8--|
---8---8---8---8---8---8---8---8--|---8---8---8---8---8---8---8---8--|
---8---8---8---8---8---8---8---8--|---8---8---8---8---8---8---8---8--|


E E E E E E E E E E E E E E E E
----------------------------------|----------------------------------|
----------------------------------|----------------------------------|
--12--12--12--12--12--12--12--12--|--12--12--12--12--12--12--12--12--|
--10--10--10--10--10--10--10--10--|--10--10--10--10--10--10--10--10--|
--10--10--10--10--10--10--10--10--|--10--10--10--10--10--10--10--10--|
--10--10--10--10--10--10--10--10--|--10--10--10--10--10--10--10--10--|


E Q E H
----------------------||
----------------------||
----------------------||
--0-------------------||
--0-------------------||
--0-------------------||




Duration Legend
---------------
W - whole
H - half
Q - quarter
E - 8th
S - 16th
T - 32nd
X - 64th
. - note dotted
|-n-| - n-tuplets


Tablature Legend
----------------
L - tied note
x - dead note
g - grace note
(n) - ghost note
> - accentuded note
NH - natural harmonic
AH - artificial harmonic
TH - tapped harmonic
SH - semi harmonic
PH - pitch harmonic
h - hammer on
p - pull off
b - bend
br - bendRelease
pb - preBend
pbr - preBendRelease
brb - bendReleaseBend
\n/ - tremolo bar dip
\n - tremolo bar dive
-/n - tremolo bar Release up
/n\ - tremolo bar inverted dip
/n - tremolo bar return
-\n - tremolo bar Release down
S - shift slide
s - legato slide
/ - slide into from below or out of upwards
\ - slide into from above or out of downwards
~ - vibrato
W - wide vibrato
tr - trill
TP - tremolo picking
T - tapping
S - slap
P - pop
< - fade in
^ - brush up
v - brush down

 
»
Tvoje obľúbené položky
Tvoje obľúbené položky
»
Nové albumy interpreta
Nové albumy interpreta
CD Paranoid Tu a teraz
CD Tu a teraz
VINYL Paranoid Satyagraha [vinyl]
VINYL Satyagraha
[vinyl]
CD Paranoid Satyagraha
CD Satyagraha
CD The Paranoid Sedem
CD Sedem

»
Najnovšie videá
Najnovšie videá

The Paranoid - Horím (cover)

The Paranoid - Môžeš ísť

The Paranoid - Anjeli spia

The Paranoid - Neviem ti povedať nie

The Paranoid - Navždy

The Paranoid - Neotočím sa
»
Najnavštevovanejšie piesne
Najnavštevovanejšie piesne
Niekde tam - akordy a text

Zachráň ma - akordy

V útrobách - akordy a text

Smäd - akordy a text

Smäd - text

Únos - text

Niekde tam - akordy a text

Odkaz - text

Zachráň Ma - text

Búrka Sĺz - text

viac




home | interpreti | register piesní | cd & dvd shop | pripomienky/nápady | kontakt | ochrana údajov | inzercia
Copyright © Pavol Bacigál, 2000-2017. Všetky práva vyhradené.
TOPlist