Konflikt

piesne (162)

  texty (88) / preklady (0)
  akordy (56) / taby (56)
  noty (0) / slideshow (0)

články (104)
fotogaléria
diskusia
videá
diskografia
v obchode
odkazy
koncerty
sťahuj



pridaj vlastný článok

Konflikt:
Deväť koncertov, dve kapely, dva štáty! Konflikt ide na Poldecák Tour! - Published by MUSIC ZONE on 6. Apríla 2016 | Komentáre vypnuté na Deväť koncertov, dv... - music-zone.eu


Arakain:
Cibula Fest 2015 ohlásil ďalšie novinky - Organizátori Cibula Festu ohlásili ďalšie novinky, ktoré prinesie tento ročník. Ok...


Konflikt:
Exot je vonku, nájdete sa v ňom? - Punkoví velikáni Konflikt vypustili do sveta akustickú verziu skladby "EXOT" z priprav... - Eva Sjekelová - Band Manager Friday Whiskey


Konflikt:
Konflikt v staro-novej zostave! - konflikt.sk - Z kapely odišiel gitarista Pali a basgitarista Viktor! Vrátil sa starý b... - konflikt.sk


Alice In Chains:
TOPFEST tento rok aj s Voodoo Six, Rytmusom, Majkom Spiritom, ale bez skupiny
Kabát!
- Hudobný festival Topfest sláviaci 10. narodeniny privíta v posledné dni mesiaca jún ... - topfest.sk


Doga:
Doga(CZ) + Konflikt(SK) Tour - Doga(CZ) + Konflikt(SK) Tour! ...


Horkýže Slíže:
Na Rockovom Mrazení sa budú rozdávať darčeky pre každého ! - Putovný rockový festival Rockové Mrazenie, ktorý sa tento rok uskutoční 1.12.2012 v... - agenturaduna.sk


Abba:
Na Festivale CERVENIK dominovala ABBA SHOW a technicka zaujimavost... - Jeden z najstarších slovenských hudobných festivalov dnes nad ránom uzavrel svoj... - Jan Kakascik


Konflikt:
Konflikt oslávi na koncerte 22 rokov - musicpress.sk


Horkýže Slíže:
HSPK: posledný hudobný míting... - ohudbe.sk


 

Konflikt

Fanúšikov: 63



A B C Č D E F G H CH I J K L Ľ M N O P Q R S Š T U V W X Y Z Ž



ako:
Konflikt - Keď nestačí už pivo
Konflikt - Keď nestačí už pivo

tlač

edituj
Pesničku videlo 2395 návštevníkov.

Kvalita tabov : bez hodnotenia
Hodnotilo ľudí: 0 ohodnoť aj ty
Prispievateľ:

Hacky42259
  *** Autor textu: Konflikt *** Autor hudby: Konflikt
Tieto taby som len dal dokopy zo zvyšných čo boli na nete a poopravil som sólo. Malo by to byť správne.
Niektoré časti songu sa hrajú trošku inak ako je to v taboch (častejšie sa brnká a pod.) ale na to si stačí napočúvať pesničku.

SONG: 2x INTRO, 2x INTRO (tlmí sa pravou rukou - palm muting), 2x INTRO,
2x [2x VERŠ, 2x VERŠ (palm muting)], 2x VERŠ, 2x INTRO, 1x SÓLO,
4x VERŠ (palm muting), 2x VERŠ, 2x INTRO

INTRO:
G|------4-4--5-5----------------4-4--5-5------4-----------------
D|-2-2--4-4--5-5--5-5--4---2-2--4-4--5-5--5-5-4-----------------
A|-2-2--2-2--3-3--5-5--4---2-2--2-2--3-3--5-5-2-----------------
E|-0-0------------3-3--2---0-0------------3-3-------------------

VERŠ:
G|-----------------5-5-5-5-5-5-5-5-----------------4-4-4-4-4-4-4-4
D|-2-2-2-2-2-2-2-2-5-5-5-5-5-5-5-5-5-5-5-5-5-5-5-5-4-4-4-4-4-4-4-4
A|-2-2-2-2-2-2-2-2-3-3-3-3-3-3-3-3-5-5-5-5-5-5-5-5-2-2-2-2-2-2-2-2
E|-0-0-0-0-0-0-0-0-----------------3-3-3-3-3-3-3-3----------------

SÓLO:
e|-------------------------------------------------------------
H|-12-10-------------13------12-10--------------------10-------
G|-------12-11-9-12-----12----------12-11-9-11-11--12----------

e|-------------------------------------------------------------
H|-12-10-------------13----------------10------------10--------
G|--------12-11-9-12----12----12-12-12----12-11--12------------

e|-------------------------------------------------------------
H|-12-10------------13----15-15-15-15-13-12---12H13P12H13P12--
G|-------12-11-9-12---12---------------------------------------

e|------------------------------------------------------------
H|-12-10------------13------12*-16*-19*-----------------------
G|-------12-11-9-12---12--------------------------------------

 
»
Tvoje obľúbené položky
Tvoje obľúbené položky
»
Nové albumy interpreta
Nové albumy interpreta
6
CD Konflikt Somnium
CD Somnium
DVD Konflikt Konfliktology
DVD Konfliktology
CD Konflikt Sapere aude
CD Sapere aude

»
Najnovšie videá
Najnovšie videá

Konflikt - Ke nesta u pivo

KONFLIKT - KED NESTACI UZ PIVO

Konflikt - Ke nesta u pivo (ervenk

Konflikt - Ke Nesta U Pivo (guitar c

Konflikt - Ke Nesta U Pivo (Guitar C

KONFLIKT - Ke nesta u pivo - guitar
»
Najnavštevovanejšie piesne
Najnavštevovanejšie piesne
Náš svet je pestrý - akordy a text

Rebel - text

Rebel - akordy a text

Mrtvá Planeta 2...[2] - akordy a text

Rebel... - akordy a text

To sme my - text

Rebel - taby

Rebel - solo - taby

Anti nazi - akordy a text

Takí sme - akordy a text

Mrtva planeta 2 - akordy a text

Rebel so solom - taby

Priatelia - akordy a text

Zlý žart - akordy a text

Rebel 100% basa dobre - taby

Život končí v.2 - akordy

In Memoriam - text

To sme my ! - akordy a text

Dar - solo - taby

Prečo? - akordy

viac




home | interpreti | register piesní | cd & dvd shop | pripomienky/nápady | kontakt | ochrana údajov | inzercia

TOPlist