Toy Pistols

piesne (47)

  texty (43) / preklady (0)
  akordy (13) / taby (2)
  noty (0) / slideshow (0)

články (3)
fotogaléria
diskusia
videá
diskografia
v obchode
odkazy
koncerty
sťahuj



pridaj vlastný článok




 

Toy Pistols

Fanúšikov: 3



A B C Č D E F G H CH I J K L Ľ M N O P Q R S Š T U V W X Y Z Ž



ako:
Toy Pistols - Keď boli mladí
Toy Pistols - Keď boli mladí

tlač

edituj
Rok vzniku: 2004
Pesničku videlo 1824 návštevníkov.

Kvalita tabov : bez hodnotenia
Hodnotilo ľudí: 0 ohodnoť aj ty
Prispievateľ:

romhead
  *** Autor textu: Toy pištoľs *** Autor hudby: Toy pištoľs
Drop D

2x
A--2-2~-2--2-2~-2--2-2~-2--5--4--
D--2-2~-2--2-2~-2--2-2~-2--5--4--

A--0-0~-0--0-0~-0--9-9~-9--5--4--
D--0-0~-0--0-0~-0--9-9~-9--5--4--

G------------------12-12-12-12-12~-11--
D--------------------------------------
A--2-2~-2--2-2~-2----------------------
D--2-2~-2--2-2~-2----------------------

To bolo vtedy
A--10-10-10-10-12-12-12-12-2-2-2-2-2-2-2-2--
D--10-10-10-10-12-12-12-12-2-2-2-2-2-2-2-2--

D--5-5-5-5-5-5-5-9-9-9-9-9-9-9-9-9-9-9-9-9-9-9-9-10-10-10-10-12-12-12-12--
A--5-5-5-5-5-5-5-9-9-9-9-9-9-9-9-7-7-7-7-7-7-7-7-10-10-10-10-12-12-12-12--
D-------------------------------------------------------------------------

A--5-5-5-5-5-5-5-9-9-9-9-9-9-9-9-2-2-2-2-2-2-2-2-10-10-10-10-12-12-12-12--
D--5-5-5-5-5-5-5-9-9-9-9-9-9-9-9-2-2-2-2-2-2-2-2-10-10-10-10-12-12-12-12--

 
»
Tvoje obľúbené položky
Tvoje obľúbené položky
»
Nové albumy interpreta
Nové albumy interpreta

»
Najnovšie videá
Najnovšie videá

Toy Pistols - Predsudky

Toy Pistols - Vyber si!

Toy Pistols - Chuligan

Toy pistols - Šípková ruženka.wmv

Toy Pistols - Srat Na Biely Dom

Toy Pistols - Predsudky
»
Najnavštevovanejšie piesne
Najnavštevovanejšie piesne
Pada sniezik pada... - akordy a text

Keď boli mladí - taby

Armada - akordy a text

Sipova ruzenka - akordy a text

Rob si čo chceš - akordy a text

Krutá realita - akordy a text

Srať na Biely Dom (intro) - akordy

S.M.K.(Súčasť mocenskej kontroly) - text

Predsudky - text

Glória - akordy a text

viac




home | interpreti | register piesní | cd & dvd shop | pripomienky/nápady | kontakt | ochrana údajov | inzercia
Copyright © Pavol Bacigál, 2000-2017. Všetky práva vyhradené.
TOPlist