Judita Čeřovská

piesne (21)

  texty (18) / preklady (0)
  akordy (12) / taby (2)
  noty (1) / slideshow (0)

články (4)
fotogaléria
diskusia
videá
diskografia
v obchode
odkazy
koncerty
sťahuj



pridaj vlastný článok

Judita Čeřovská:
Různí - Anglické jahody - musiczone.cz


Judita Čeřovská:
Královny popu dobyly hrad Karlštejn - vecernik-praha.cz


Atomic Kitten:
Překvapení? Limp Bizkit kralují éteru! - Překvapení? Limp Bizkit kralují éteru! 17.04.2004 09:48, Luboš Kreč Tak jako každý tý... - musicserver.cz


Judita Čeřovská:
Staré hity jen tak nezestárnou - Staré hity jen tak nezestárnou CD tip Nová kompilace zpěvačky Judity Čeřovské nazva... - halonoviny.cz


 

Judita Čeřovská

Fanúšikov: 0



A B C Č D E F G H CH I J K L Ľ M N O P Q R S Š T U V W X Y Z Ž



ako:
Judita Čeřovská - Řekni, kde ty kytkou jsou-basové taby
Judita Čeřovská - Řekni, kde ty kytkou jsou-basové taby

tlač

edituj
Pesničku videlo 2302 návštevníkov.

Kvalita tabov : bez hodnotenia
Hodnotilo ľudí: 0 ohodnoť aj ty
Prispievateľ:

Hudino
 G|-------------------------------------
D|-----------7-------------------------
A|-8--8-8--5----5-----8----------5-7---
E|-------8--------8-6----6-8--8-8------


-------------------------------------
-----------7-------------------------
-8--8-8--5----5-----8----------5-7---
-------8--------8-6----6-8--8-8------


------------------------------------
-----------7---------------5---------
-8--8-8--5----5-----8--------7-5-----
-------8--------8-6----6-8-------8---


-------------------------------------------
-----------------------5-------------------
----5-7-8--------5-8-----7-----------------
-6---------8-5-6-----8-----1-1-11-8-8-88---


 
»
Tvoje obľúbené položky
Tvoje obľúbené položky
»
Nové albumy interpreta
Nové albumy interpreta
2xCD Vlach Karel Legenda
2xCD Legenda

»
Najnovšie videá
Najnovšie videá

Řekni kde ty kytky jsou

The Rebels - Rebelové - Řekni, kde ty ky

Judita Čeřovská...Řekn i kde ty kytky js

Judita Čeřovská - Řekni kde ty kytky jso

Judita Čeřovská - Řekni kde ty kytky jso

Judita Čeřovská - Řekni, kde ty kytky js
»
Najnavštevovanejšie piesne
Najnavštevovanejšie piesne



home | interpreti | register piesní | cd & dvd shop | pripomienky/nápady | kontakt | ochrana údajov | inzercia
Copyright © Pavol Bacigál, 2000-2017. Všetky práva vyhradené.
TOPlist