Tři Sestry

piesne (480)

  texty (418) / preklady (0)
  akordy (275) / taby (42)
  noty (0) / slideshow (0)

články (169)
fotogaléria
diskusia
videá
diskografia
v obchode
odkazy
koncerty
sťahuj



pridaj vlastný článok

Tři Sestry:
V Sádku se zpívalo a tančilo na Tři sestry. Vzduchem létala trička - Vydáno před 16 hodinami V klubu Sádek 2000 Music Hall vystoupili před téměř vyprod... - ireport.cz


Shawn Mendes:
Nová alba: Xindl X, Shawn Mendes, Tři sestry či The Fellas - Blíží se konec roku a alba umělců výrazných jmen přicházejí na trh. V tomto týdnu upozorň...


Lou Fananek Hagen:
Tři sestry open air v Litvínově: Lou Fanánek Hagen mezi ohni - Vydáno včera Facebook39 Twitter0 Google+0 Kapela Tři sestry pod taktovkou Lou Fanánka... - ireport.cz


Tři Sestry:
Tři sestry vyráží na sérii open airů. V pátek třináctého zahrají v Litvínově - Vydáno včera | autor: redakce Facebook283 Twitter0 Google+0 V pátek 13. května odstar... - ireport.cz


Tři Sestry:
Tři sestry zvou na květnový open air v Praze. Dorazí i Visací zámek, Vypsaná
Fixa a další
- Vydáno před 8 hodinami | autor: redakce Facebook97 Twitter0 Google+0 Tři sestry letos... - ireport.cz


Tři Sestry:
Tři sestry obléknou dresy a zahrají si hokejovou Extraligu. Stát pro nim bude i
Hašek
- /**/ více tiscali.cz ... - IREPORT


Michal Hrůza:
Keltská noc slaví 20 let, pogratulují Tři sestry, Michal Hrůza a další - /**/ více tiscali.cz ... - IREPORT


Tři Sestry:
Tři sestry oslaví 30. narozeniny ve velkém. Poprvé si troufnou na O2 arenu - /**/ více tiscali.cz ... - IREPORT


Tři Sestry:
Tři sestry vyprodaly oba pražské koncerty, přidávají odpolední termín - /**/ více tiscali.cz... - IREPORT


Tři Sestry:
Tři sestry oslaví třicetiny vydáním kompletu svých nahrávek - Tři sestry oslaví třicetiny vydáním kompletu svých nahrávek Vydáno: 29.11.2014 13:37 ... - musicserver.cz


 

Tři Sestry

Fanúšikov: 38



A B C Č D E F G H CH I J K L Ľ M N O P Q R S Š T U V W X Y Z Ž



ako:
Tři Sestry - Hrábě-basové taby
Tři Sestry - Hrábě-basové taby

tlač

edituj
Pesničku videlo 3711 návštevníkov.

Kvalita tabov : bez hodnotenia
Hodnotilo ľudí: 0 ohodnoť aj ty
Prispievateľ:

Hudino
           Intro
G|----------------------------
D|----------------------------
A|----------------------------
E|-22-3------22-3------22-3---


Verse
G|----------------------------
D|----------------------------
A|----------------------------
E|-22-3------22-3------22-3---


Pre-chorus
G|-----------------
D|-----------------
A|-------2--3--5---
E|-22-3------------

Chorus
G|---------------------------------------------------
D|---2-3-5---2-3-5-------------------4-5-7---2-3-5---
A|-3-------3---------2-3-5---2-3-5-5-------3---------
E|-----------------3-------3-------------------------



---------------------
-------2-0-----------
---2-5-----2-0-2-----
-3---------------3---


Guitar solo
G|--------------------------------------------
D|--------------------------------------------
A|----------------------------------2--3--5---
E|-3------22-3------22-3------22-3------------


---------------------------------------------------
---2-3-5---2-3-5-------------------4-5-7---2-3-5---
-3-------3---------2-3-5---2-3-5-5-------3---------
-----------------3-------3-------------------------


---------------------
-------2-0-----------
---2-5-----2-0-2-----
-3---------------3---



Interlude
G|-----------------------------------
D|-----------------------------------
A|---2-3-5---2-3-5---2-3-5---2-3-5---
E|-3-------3-------3-------3---------



------------------------------------------
---2-3-5---2-3-5------------------4-5-7---
-3-------3---------2-3-5--2-3-5-5---------
-----------------3-------3----------------



----------------------------
---2-3-5--------2-0---------
-3----------2-5-----2-0-2---
----------3-----------------





Intro
Verse
Pre-Chorus
Chorus
Verse
Pre-Chorus
Chorus
Guitar solo
Verse
Pre-Chorus
Chorus
Interlude (2x)
















 
»
Tvoje obľúbené položky
Tvoje obľúbené položky
»
Nové albumy interpreta
Nové albumy interpreta
3xCD Tri Sestry Fernet underground plus best of (1991-20
3xCD Fernet
underground plus
best of (1991-20
2xCD Tri Sestry Fernet underground (deluxe 2cd)
2xCD Fernet
underground
(deluxe 2cd)
CD Tri Sestry Fernet underground
CD Fernet
underground
30xCD+DVD Tri Sestry 30box
30xCD+DVD 30box
2xCD Tri Sestry Lina hudba/extended
2xCD Lina
hudba/extended
VINYL Tri Sestry Lina hudba holy nestesti [vinyl]
VINYL Lina hudba holy
nestesti [vinyl]

»
Najnovšie videá
Najnovšie videá

Tři sestry - Hrábě.wmv

TAXIS - Hrábě (Tři sestry)

Tři sestry - Hrábě, HYDRA

Anton Pavlovič Čechov - Tři sestry (Mluv

Tři sestry - Plechový ježíš (OFFICIAL VI

Hydra-Tři Sestry-Hrábě.
»
Najnavštevovanejšie piesne
Najnavštevovanejšie piesne
Aida-přehlednejší - akordy a text

Modlitba pro partu - akordy a text

Školka - akordy a text

Titanic - správné akordy - akordy a text

Zelená - správné akordy - akordy a text

Život je takovej - správné akordy - akordy a text

Mexiko - akordy a text

Modlitba pro partu - úprava přehlednosti - akordy a text

Plechový Ježíš - akordy

Svatá Petra - akordy

viac




home | interpreti | register piesní | cd & dvd shop | pripomienky/nápady | kontakt | ochrana údajov | inzercia
Copyright © Pavol Bacigál, 2000-2017. Všetky práva vyhradené.
TOPlist