Elán

piesne (613)

  texty (418) / preklady (32)
  akordy (278) / taby (73)
  noty (19) / slideshow (0)

články (339)
fotogaléria
diskusia
videá
diskografia
v obchode
odkazy
koncerty
sťahuj



pridaj vlastný článok

Elán:
PRIDÁVÁ ĎALŠÍ KONCERT POD ŠÍRYM NEBOM. - Skupina Elán v tomto roku pôvodne plánovala odohrať len dva open-air koncerty na Slovensk... - M.Helcl


Elán:
ŽIVÝCH NÁS NEDOSTANÚ POD ŠIRÝM NEBOM - ELÁN SA PRESUNIE Z HÁL NA OPEN AIR PÓDIÁ Kapela Elán se po veľmi úspešnom vypredanom č... - brainzone


Elán:
Elán v Plzni: Živé je nedostanou! - Vydáno včera V rámci Elán tour 2016 Živých nás nedostanú! přijela populární sloven... - ireport.cz


Elán:
Joža Ráža prekvapil obdivovateľ z Guatemaly: Elán mi uľahčil život a otvoril
mnohé dvere!
- 04.10.2016 (39/2016) Vesmír to zariadil. Život číslo 30 a v ňom tesne za sebou príbeh Mig... - cas.sk


Elán:
Elán láká fanoušky na podzimní turné bohatou dvajalbovou reedicí "Živých nás
nedostanú"
- Vydáno: 07.10.2016 10:00 v sekci Recenze - Milan Menčík Elán nachystal pro své fanoušky ... - musicserver.cz


Elán:
Splnený sen: U Joža Ráža sa odohralo nezabudnuteľné stretnutie! Kto ho
navštívil?
- 28.09.2016 (39/2016) V deň D bol Jožo, ako vždy, v pohode. Zato Miguel, hoci sa na stretn... - cas.sk


Elán:
Elánisti vyhodili gitaristu Tótha cez mail. Ťažké srdce nemá: Jožo je bos! - 20. jún 2016, 09:002 ➡ Tip redakcii Elánisti dali svojmu gitaristovi padáka prost... - pluska.sk


Elán:
Pripomeňte si kurióznu nehodu Joža Ráža: Selfie-čka a veľký smiech! - Pošlite nám tip Jožo Ráž sa po zrážke dokonca smial. Jožo Ráž sa po zrážke dokonca sm... - topky.sk


Elán:
Gott, Olympic aj Elán na megakoncerte pripomenú 50. výročie Bratislavskej lýry - včera o 11:10 | redakcia Približne 30 hitov Bratislavskej lýry zaznie opäť naživo poča... - zoznam.sk


Martin Chodúr:
Bratislavská lýra oslávi 50. Pozrite si tváre, ktoré jej kraľovali - BRATISLAVA - V Bratislave sa 9. júna 1966 začal v Športovej hale na Pasienkoch Medzinár... - atlas.sk


 

Elán

Fanúšikov: 138



A B C Č D E F G H CH I J K L Ľ M N O P Q R S Š T U V W X Y Z Ž



ako:
Elán - Čas mládať - basové taby
Elán - Čas mládať - basové taby

tlač

edituj
Pesničku videlo 2661 návštevníkov.

Kvalita tabov : bez hodnotenia
Hodnotilo ľudí: 0 ohodnoť aj ty
Prispievateľ:

Hudino
   Basa začína hrať 1:37 - hrá sa trstáko + popovanie niektorých tónov (fenomén,ktorý som zatiaľ videl len u Joža) :)
Pesničku si treba poriadne napočúvať,pretože Jožo pri hraní mení tempá a techniky.Žiadna výrazná chyba by tam,myslím
byť nemala,nakoľko som tomu venoval niekeľko dní.Prajem príjemnú zábavu ! :)


G|--------------------------------------------3-3h5-0---
D|----55-3-4-------------------555-3-55-----------------
A|---------------------------------------1h3----------3-
E|-3---------33--3-1h3-1-2-33---------------------------
P P P P P

------------------------------------------------------5-3-5-0---
-----------------5--5-3------3h5-3-4----------------------------
-3--1h3-------------------------------------1--3\1/3----------3-
---------1h3-1h3--------1-33---------1-3--3---------------------
P P P P P P

----------5h7-7---7-----8-8h10-8-------------------------------------
----------------------------------10-8-6-----------------------------
-3--3-3/5-------5---8-6----------------------3-------4-44-4--444-3---
------------------------------------------44---3-444--------4--------


Refrén
G|--------------------------------------------------3-5-3-55-3---
D|---------------------1-2-3-----0-----0------1-3/5------------5-
A|-3--3----------1-2-3-------1-3---2-3---3--3--------------------
E|-----4-3--3-1--------------------------------------------------


-------------------5-----------------------------------------
---------------5h6--5-66-5-----------------------------------
-3--3--1--1--------------------3---1-5-3--3---1-3-33-1-------
-----4------4--------------1-4---3----------3----------3-1---


Gitarové sólo
G|---------------------------------------------------3---55-3---
D|---------------------0-1-3-------0-----0-----1-3/5---5------5-
A|-3--3----------1-2-3-------3-1-3---2-3---3--3-----------------
E|-----4-3--3-1-------------------------------------------------



----------------------------------------------------------------
---------------5h6----------------------------------------------
-3--3--1--1--------6------------3---1-5-3--3--3-3-3-3-3-3-3-3---
-----4------4--------33-4-3-1-4---3-----------------------------


Prestávka
G|-----------------------------------------------------
D|-----------------------------------------------------
A|-3-----------1---2---3------3---1----------------3---
E|-----3---1---------------------------4---1---3-------



Ďalšie variácie refrénov
G|---------------------------------------------------3---55-3---
D|---------------------0-1-3-------0-----0-----1-3/5---5------5-
A|-3--3----------1-2-3-------3-1-3---2-3---3--3-----------------
E|-----4-3--3-1-------------------------------------------------


-----------------------------------------------------
---------------6-5-6-666-5---------------------------
-3--3--1--1--------------------3---1-5-3----1---11---
-----4------4--------------1-4---3--------3---3----3-


--------------------------------------------
---------------3-----1-33-------0-----0-----
-3--3------------1h3------3-1-3---2-3---3---
-----4-3--3-1-------------------------------


--------------------------------------------------------
---------------5h6--------------------------------------
-3--3--1--1---------6-----------3---1-5-3---3-333---1---
-----4------4---------3-4-3-1-4---3---------------3-----


Outro
G|---------------------------------------
D|--------------33----33-----------------
A|-3-33--------------------1-11-2-22-3---
E|------3-33-1------11---1---------------


/-slide down

\-slide up

h-príklep

P-pop

 
»
Tvoje obľúbené položky
Tvoje obľúbené položky
»
Nové albumy interpreta
Nové albumy interpreta
VINYL Elan Zivych nas nedostanu [vinyl]
VINYL Zivych nas
nedostanu
[vinyl]
CD Elan Hodina nehy
CD Hodina nehy
6xCD Elan Kamarati
6xCD Kamarati
CD Elan Zivych nas nedostanu
CD Zivych nas
nedostanu
CDP Elán Golden hits ... 30 let s elánem [czdabing]
CDP Golden hits ...
30 let s elánem
[czdabing]
DVD Karaoke Ceske a slovenske hity
DVD Ceske a
slovenske hity

»
Najnovšie videá
Najnovšie videá

Elán - Že mi je ľúto (s kapelou Lojzo)

Elán - Žaba na prameni

Elán - Hodina nehy

Elán - Anna Mária

Elan - Mladata + Fero (live, mobil)

Elán - Zaľúbil sa chlapec
»
Najnavštevovanejšie piesne
Najnavštevovanejšie piesne
Láska moja - akordy a text

Neodchádzaj - text

Voda čo ma drží nad vodou - akordy a text

Bosorka - akordy a text

Ak nie si moja - akordy a text

Neviem byť sám - akordy a text

Kde si - akordy a text

Zanedbaný sex - akordy a text

Ryšavá - text

Kráľovná bielych tenisiek - akordy

viac




home | interpreti | register piesní | cd & dvd shop | pripomienky/nápady | kontakt | ochrana údajov | inzercia
Copyright © Pavol Bacigál, 2000-2017. Všetky práva vyhradené.
TOPlist