Greenhorns

piesne (210)

  texty (201) / preklady (0)
  akordy (184) / taby (3)
  noty (3) / slideshow (0)

články (17)
fotogaléria
diskusia
videá
diskografia
v obchode
odkazy
koncerty
sťahuj



pridaj vlastný článok

Greenhorns:
Zemřel František Kacafírek ze skupiny Zelenáči - František Kacafírek (Foto: Zelenáči) František Kacafírek (Foto: Zelenáči) V p... - countryworld.cz


Fešáci:
Česká country muzika slaví půlstoletí výpravným 2CD + 2DVD - Finále , 50 let české country, Praha, Lucerna, 12.11.2015 (Foto: Jiří Konc / Count... - countryworld.cz


50 Cent:
Nové desky pro 19. týden 2014 - Vydáno: 04.05.2014 14:17 v sekci Nové desky - Tomáš Parkan a Petra Hubáčková ... - musicserver.cz


Greenhorns:
Greenhorns 1975–91: léta netučná i tučná - countryworld.cz


Greenhorns:
Soutěž o CD skupiny Greenhorns: Bůh mi seslal krásný ráno - countryworld.cz


Greenhorns:
Medard Konopík: „Z nového alba Greenhornů mám radost!“ - countryworld.cz


Greenhorns:
Greenhorns vydají nové album - countryworld.cz


Bokomara:
Lodenica: Obľúbené hudobné skupiny na jubileu nesmú chýbať - Lodenica: Obľúbené hudobné skupiny na jubileu nesmú chýbať Festival Zlatá Stud...


Čechomor:
Desiata jubilejná Zlatá Studňa Lodenica len za 500,-Sk. - Desiata jubilejná Zlatá Studňa LODENICA len za 500,-Sk. Záujem o jubilejný 10. ro...


Bg Time:
Program Lodenice 2008 - PIEŠTANY – Tento rok sa po jubilejný 10. krát v posledný augustový víkend otvoria ...


 

Greenhorns

Fanúšikov: 12



A B C Č D E F G H CH I J K L Ľ M N O P Q R S Š T U V W X Y Z Ž



ako:
Greenhorns - El Paso (solova kytara part)
Greenhorns - El Paso (solova kytara part)

tlač

edituj
V originále: El Paso
Pesničku videlo 4279 návštevníkov.

Kvalita tabov : bez hodnotenia
Hodnotilo ľudí: 0 ohodnoť aj ty
Prispievateľ:

petr554
  *** Autor textu: Greenhorn *** Autor hudby: Marty Robbins
                        El Paso                                 


Acoustic solo gtr. Marty Robbins / Greenhorn

Tempo Q=176
Takt 3/4

Q Q Q Q Q Q E E E E E E
E||-----------------|--5--------------|----------------------|
B||------------7----|-------7---------|---------------8--10--|
G||-------7---------|------------7----|------------9---------|
D||--7--------------|-----------------|---------9------------|
A||-----------------|-----------------|--7--10---------------|
E||-----------------|-----------------|----------------------|


Q Q E E Q. E Q Q Q. E
--7---------------|--10------10--10----|--10-----9------7--|
-------8----------|--12------12--12----|--12----10------8--|
------------9-----|--------------------|-------------------|
------------------|--------------------|-------------------|
------------------|--------------------|-------------------|
------------------|--------------------|-------------------|


TP TP
Q Q Q H Q Q Q E E
--7----5----3----|--2-------------|--10----10----L------|
--8----7----5----|--3-------------|--12----12----L--12--|
-----------------|----------------|---------------------|
-----------------|----------------|---------------------|
-----------------|----------------|---------------------|
-----------------|----------------|---------------------|


Q Q. E H. H.
---9-------------9--|---------------||----------------|
--10------------10--|---------------||----------------|
--------11----------|--7------------||*---------------|
--------------------|---------------||*---------------|
--------------------|---------------||----------------|
--------------------|---------------||----------------|


H. Q Q Q Q Q Q H.
---------------|-----------------|-----------------|---------------|
---------------|------------7----|--8--------------|---------------|
---------------|-------9---------|-------9---------|---------------|
---------------|-----------------|------------9----|--7------------|
---------------|-----------------|-----------------|---------------|
---------------|-----------------|-----------------|---------------|


H. H. Q Q Q Q Q Q
---------------|---------------|------------------|-----------------|
---------------|---------------|--7----8----10----|------------7----|
---------------|---------------|------------------|--7----9---------|
---------------|---------------|------------------|-----------------|
---------------|---------------|------------------|-----------------|
---------------|---------------|------------------|-----------------|


H Q H Q H. H.
----------------|----------------|---------------|---------------|
----------------|----------------|---------------|---------------|
----------------|----------------|---------------|---------------|
--9-------------|--7-------------|---------------|---------------|
-----------9----|-----------9----|--5------------|---------------|
----------------|----------------|---------------|---------------|


Q Q Q E E E E E E H.
-----------------|--0--2--3--2--0-----|---------------|
------------0----|-----------------3--|--2------------|
-------0---------|--------------------|---------------|
-----------------|--------------------|---------------|
-----------------|--------------------|---------------|
-----------------|--------------------|---------------|


Q E E E E Q Q E E H E E
-------------------|------------------|-----------------|
--L----0--2--0-----|------------------|-----------------|
----------------3--|--2----0----2-----|-----------------|
-------------------|------------------|--0--------------|
-------------------|------------------|-----------4--5--|
-------------------|------------------|-----------------|


E E E E E E Q Q E E Q Q Q
--------------------|------------------|-----------------|
--------------------|------------------|-----------------|
--------6--7--6--7--|--6---------------|-----------------|
--4--7--------------|-------7----4-----|-------4----7----|
--------------------|---------------5--|--5--------------|
--------------------|------------------|-----------------|


TP TP
H. H. Q Q Q
---------------|---------------|-------7----7----|
---------------|---------------|-------8----8----|
---------------|---------------|-----------------|
---------------|---------------|-----------------|
--5------------|---------------|-----------------|
---------------|---------------|-----------------|


TP TP TP TP
Q Q E E Q Q Q Q Q Q
--7---------10--10--|--10-----9-----9----|---9-----9-----9----|
--8---------12--12--|--12----10----10----|--10----10----10----|
--------------------|--------------------|--------------------|
--------------------|--------------------|--------------------|
--------------------|--------------------|--------------------|
--------------------|--------------------|--------------------|


TP TP TP TP TP TP TP
Q Q Q Q Q Q Q Q Q
---9-----9---------|--14----14----14----|--12----12----10----|
--10----10---------|--12----12----12----|--12----12----12----|
-------------------|--------------------|--------------------|
-------------------|--------------------|--------------------|
-------------------|--------------------|--------------------|
-------------------|--------------------|--------------------|


TP TP TP
Q Q Q Q Q E E H.
--10----10----10----|----------------------|----------------|
--10----10----10----|--------10--------10--|----------------|
--------------------|--11----------11------|----------------|
--------------------|----------------------|--12------------|
--------------------|----------------------|----------------|
--------------------|----------------------|----------------|


H. H. E E E E E E
---------------|---------------|---------10--12--14--12--|
---------------|---------------|-----12------------------|
---------------|---------------|-------------------------|
---------------|---------------|-------------------------|
---------------|---------------|-------------------------|
---------------|---------------|-------------------------|


H. H. H. Q Q E E
---------------|---------------|---------------|------------10--10--|
---------------|---------------|---------------|--------------------|
---------------|---------------|---------------|------------11--11--|
---------------|---------------|---------------|--------------------|
---------------|---------------|---------------|--------------------|
---------------|---------------|---------------|--------------------|


Q Q Q E E Q Q Q Q Q
--10----10----10----|---9s--10--9----------|--------------------|
--------------------|----------------12----|--10----------------|
--11----11----11----|--11------------------|--------11----------|
--------------------|----------------------|--------------12----|
--------------------|----------------------|--------------------|
--------------------|----------------------|--------------------|


H. H. H. H.
---------------|---------------|---------------|---------------|
---------------|---------------|---------------|---------------|
---------------|---------------|---------------|---------------|
---------------|---------------|---------------|---------------|
---------------|---------------|---------------|---------------|
---------------|---------------|---------------|---------------|


H. H. H. H.
---------------|---------------|---------------|---------------|
---------------|---------------|---------------|---------------|
---------------|---------------|---------------|---------------|
---------------|---------------|---------------|---------------|
---------------|---------------|---------------|---------------|
---------------|---------------|---------------|---------------|


H. H. H. H.
---------------|---------------|---------------|---------------|
---------------|---------------|---------------|---------------|
---------------|---------------|---------------|---------------|
---------------|---------------|---------------|---------------|
---------------|---------------|---------------|---------------|
---------------|---------------|---------------|---------------|


H. H. H. H.
---------------|---------------|---------------|---------------|
---------------|---------------|---------------|---------------|
---------------|---------------|---------------|---------------|
---------------|---------------|---------------|---------------|
---------------|---------------|---------------|---------------|
---------------|---------------|---------------|---------------|


H. H. H. H.
---------------|---------------|---------------|---------------|
---------------|---------------|---------------|---------------|
---------------|---------------|---------------|---------------|
---------------|---------------|---------------|---------------|
---------------|---------------|---------------|---------------|
---------------|---------------|---------------|---------------|


H. Q Q Q H.
---------------|-------3----5----|--7------------|
---------------|-------5----7----|--8------------|
---------------|-----------------|---------------|
---------------|-----------------|---------------|
---------------|-----------------|---------------|
---------------|-----------------|---------------|


Q E Q E Q Q Q Q Q Q
-------10--10----10--|--10----10----10-----||--10----10----10----|
-------12--12----12--|--12----12----12-----||--12----12----12----|
---------------------|--------------------*||--------------------|
---------------------|--------------------*||--------------------|
---------------------|---------------------||--------------------|
---------------------|---------------------||--------------------|


H. H. Q Q Q
---------------|---------------|-----------------|
---------------|---------------|------------0----|
---------------|---------------|-------0---------|
---------------|---------------|-----------------|
--5------------|---------------|-----------------|
---------------|---------------|-----------------|


E E E E E E H. Q E E E E
--0--2--3--2--0-----|---------------|-------------------|
-----------------3--|--2------------|--L----0--2--0-----|
--------------------|---------------|----------------3--|
--------------------|---------------|-------------------|
--------------------|---------------|-------------------|
--------------------|---------------|-------------------|


Q Q E E H E E E E E E E E
------------------|-----------------|--------------------|
------------------|-----------------|--------------------|
--2----0----2-----|-----------------|--------6--7--6--7--|
------------------|--0--------------|--4--7--------------|
------------------|-----------4--5--|--------------------|
------------------|-----------------|--------------------|


Q Q E E Q Q Q H. H.
------------------|-----------------|---------------|---------------|
------------------|-----------------|---------------|---------------|
--6---------------|-----------------|---------------|---------------|
-------7----4-----|-------4----7----|---------------|---------------|
---------------5--|--5--------------|--5------------|---------------|
------------------|-----------------|---------------|---------------|


TP TP TP
Q Q Q Q Q E E Q Q Q
-------7----7----|--7---------10--10--|--10-----9-----9----|
-------8----8----|--8---------12--12--|--12----10----10----|
-----------------|--------------------|--------------------|
-----------------|--------------------|--------------------|
-----------------|--------------------|--------------------|
-----------------|--------------------|--------------------|


TP TP TP TP TP TP TP TP
Q Q Q Q Q Q Q Q Q
---9-----9-----9----|---9-----9---------|--14----14----14----|
--10----10----10----|--10----10---------|--12----12----12----|
--------------------|-------------------|--------------------|
--------------------|-------------------|--------------------|
--------------------|-------------------|--------------------|
--------------------|-------------------|--------------------|


TP TP TP TP TP
Q Q Q Q Q Q Q Q E E
--12----12----10----|--10----10----10----|----------------------|
--12----12----12----|--10----10----10----|--------10--------10--|
--------------------|--------------------|--11----------11------|
--------------------|--------------------|----------------------|
--------------------|--------------------|----------------------|
--------------------|--------------------|----------------------|


H. H. H.
----------------|---------------|---------------|
----------------|---------------|---------------|
----------------|---------------|---------------|
--12------------|---------------|---------------|
----------------|---------------|---------------|
----------------|---------------|---------------|


E E E E E E H. H.
---------10--12--14--12--|---------------|---------------|
-----12------------------|---------------|---------------|
-------------------------|---------------|---------------|
-------------------------|---------------|---------------|
-------------------------|---------------|---------------|
-------------------------|---------------|---------------|


H. Q Q E E Q Q Q
---------------|------------10--10--|--10----10----10----|
---------------|--------------------|--------------------|
---------------|------------11--11--|--11----11----11----|
---------------|--------------------|--------------------|
---------------|--------------------|--------------------|
---------------|--------------------|--------------------|


E E Q Q Q Q Q H.
---9s--10--9----------|--------------------|---------------|
----------------12----|--10----------------|---------------|
--11------------------|--------11----------|---------------|
----------------------|--------------12----|---------------|
----------------------|--------------------|---------------|
----------------------|--------------------|---------------|


H. H. H. H.
---------------|---------------|---------------|---------------|
---------------|---------------|---------------|---------------|
---------------|---------------|---------------|---------------|
---------------|---------------|---------------|---------------|
---------------|---------------|---------------|---------------|
---------------|---------------|---------------|---------------|


H. H. H. H.
---------------|---------------|---------------|---------------|
---------------|---------------|---------------|---------------|
---------------|---------------|---------------|---------------|
---------------|---------------|---------------|---------------|
---------------|---------------|---------------|---------------|
---------------|---------------|---------------|---------------|


H. H. H. H.
---------------|---------------|---------------|---------------|
---------------|---------------|---------------|---------------|
---------------|---------------|---------------|---------------|
---------------|---------------|---------------|---------------|
---------------|---------------|---------------|---------------|
---------------|---------------|---------------|---------------|


H. H. H. H.
---------------|---------------|---------------|---------------|
---------------|---------------|---------------|---------------|
---------------|---------------|---------------|---------------|
---------------|---------------|---------------|---------------|
---------------|---------------|---------------|---------------|
---------------|---------------|---------------|---------------|


H. H. H. H.
---------------|---------------|---------------|---------------|
---------------|---------------|---------------|---------------|
---------------|---------------|---------------|---------------|
---------------|---------------|---------------|---------------|
---------------|---------------|---------------|---------------|
---------------|---------------|---------------|---------------|


Q Q Q H. Q E Q E
-------3----5----|--7------------|-------10--10----10--|
-------5----7----|--8------------|-------12--12----12--|
-----------------|---------------|---------------------|
-----------------|---------------|---------------------|
-----------------|---------------|---------------------|
-----------------|---------------|---------------------|


Q Q Q H. H.
--10----10----10----|---------------|---------------|
--12----12----12----|---------------|---------------|
--------------------|---------------|---------------|
--------------------|---------------|---------------|
--------------------|---------------|---------------|
--------------------|---------------|---------------|


Q Q Q Q Q Q H. H.
-----------------|-----------------|---------------|---------------|
------------7----|--8--------------|---------------|---------------|
-------9---------|-------9---------|---------------|---------------|
-----------------|------------9----|--7------------|---------------|
-----------------|-----------------|---------------|---------------|
-----------------|-----------------|---------------|---------------|


H. Q Q Q Q Q Q H Q
---------------|------------------|-----------------|----------------|
---------------|--7----8----10----|------------7----|----------------|
---------------|------------------|--7----9---------|----------------|
---------------|------------------|-----------------|--9-------------|
---------------|------------------|-----------------|-----------9----|
---------------|------------------|-----------------|----------------|


H Q H. H. Q Q Q
----------------|---------------|---------------|-----------------|
----------------|---------------|---------------|------------0----|
----------------|---------------|---------------|-------0---------|
--7-------------|---------------|---------------|-----------------|
-----------9----|--5------------|---------------|-----------------|
----------------|---------------|---------------|-----------------|


E E E E E E H. Q E E E E
--0--2--3--2--0-----|---------------|-------------------|
-----------------3--|--2------------|--L----0--2--0-----|
--------------------|---------------|----------------3--|
--------------------|---------------|-------------------|
--------------------|---------------|-------------------|
--------------------|---------------|-------------------|


Q Q E E H E E E E E E E E
------------------|-----------------|--------------------|
------------------|-----------------|--------------------|
--2----0----2-----|-----------------|--------6--7--6--7--|
------------------|--0--------------|--4--7--------------|
------------------|-----------4--5--|--------------------|
------------------|-----------------|--------------------|


Q Q E E Q Q Q H. H.
------------------|-----------------|---------------|---------------|
------------------|-----------------|---------------|---------------|
--6---------------|-----------------|---------------|---------------|
-------7----4-----|-------4----7----|---------------|---------------|
---------------5--|--5--------------|--5------------|---------------|
------------------|-----------------|---------------|---------------|


TP TP TP
Q Q Q Q Q E E Q Q Q
-------7----7----|--7---------10--10--|--10-----9-----9----|
-------8----8----|--8---------12--12--|--12----10----10----|
-----------------|--------------------|--------------------|
-----------------|--------------------|--------------------|
-----------------|--------------------|--------------------|
-----------------|--------------------|--------------------|


TP TP TP TP TP TP TP TP
Q Q Q Q Q Q Q Q Q
---9-----9-----9----|---9-----9---------|--14----14----14----|
--10----10----10----|--10----10---------|--12----12----12----|
--------------------|-------------------|--------------------|
--------------------|-------------------|--------------------|
--------------------|-------------------|--------------------|
--------------------|-------------------|--------------------|


TP TP TP TP TP
Q Q Q Q Q Q Q Q E E
--12----12----10----|--10----10----10----|----------------------|
--12----12----12----|--10----10----10----|--------10--------10--|
--------------------|--------------------|--11----------11------|
--------------------|--------------------|----------------------|
--------------------|--------------------|----------------------|
--------------------|--------------------|----------------------|


H. H. H.
----------------|---------------|---------------|
----------------|---------------|---------------|
----------------|---------------|---------------|
--12------------|---------------|---------------|
----------------|---------------|---------------|
----------------|---------------|---------------|


E E E E E E H. H.
---------10--12--14--12--|---------------|---------------|
-----12------------------|---------------|---------------|
-------------------------|---------------|---------------|
-------------------------|---------------|---------------|
-------------------------|---------------|---------------|
-------------------------|---------------|---------------|


^
H. Q Q E E Q Q Q H.
---------------|------------------|-----------------|---------------||
---------------|------------------|-----------------|--3------------||
---------------|------------2--4--|--2---------2----|--2------------||
---------------|------------------|-------4---------|--4------------||
---------------|------------------|-----------------|---------------||
---------------|------------------|-----------------|---------------||




Duration Legend
---------------
W - whole
H - half
Q - quarter
E - 8th
S - 16th
T - 32nd
X - 64th
. - note dotted
|-n-| - n-tuplets


Tablature Legend
----------------
L - tied note
x - dead note
g - grace note
(n) - ghost note
> - accentuded note
NH - natural harmonic
AH - artificial harmonic
TH - tapped harmonic
SH - semi harmonic
PH - pitch harmonic
h - hammer on
p - pull off
b - bend
br - bendRelease
pb - preBend
pbr - preBendRelease
brb - bendReleaseBend
\n/ - tremolo bar dip
\n - tremolo bar dive
-/n - tremolo bar Release up
/n\ - tremolo bar inverted dip
/n - tremolo bar return
-\n - tremolo bar Release down
S - shift slide
s - legato slide
/ - slide into from below or out of upwards
\ - slide into from above or out of downwards
~ - vibrato
W - wide vibrato
tr - trill
TP - tremolo picking
T - tapping
S - slap
P - pop
< - fade in
^ - brush up
v - brush down

 
»
Tvoje obľúbené položky
Tvoje obľúbené položky
»
Nové albumy interpreta
Nové albumy interpreta
6
3xCD Greenhorns Zlata era 1975-1991
3xCD Zlata era
1975-1991
3xCD Greenhorns Zlata era 1967-1974
3xCD Zlata era
1967-1974
CD Greenhorns Tem, kteri tu uz nejsou
CD Tem, kteri tu uz
nejsou
2xCD Greenhorns Best-rovnou tady... 42 hitu
2xCD Best-rovnou
tady... 42 hitu

»
Najnovšie videá
Najnovšie videá

Greenhorns - El Paso

Greenhorns - '72 - 09 - El Paso

Greenhorns - Feleena z El Pasa

Feleena z El Pasa Michal Tun

Greenhorns - El Paso [1971 Vinyl Records

El Paso - Greenhorns / smlk /
»
Najnavštevovanejšie piesne
Najnavštevovanejšie piesne
Jupí, čerte - akordy a text

Little big horn - akordy a text

John Hardy - akordy a text

Tak já jdu dál - akordy a text

Jupí čerte - akordy a text

Blues folsomské věznice - akordy a text

Dívka s vlasem medovým - akordy a text

Jesse James - akordy a text

Zabili, zabili (z filmu Balada pro banditu) - akordy a text

Zuzana - akordy a text

Šest bílejch koní - presné akordy, text, zbory - akordy a text

Divnej smích - akordy a text

Zátoka - akordy a text

Když náš táta hrál - akordy a text

Oranžový expres - akordy a text

Toulavej song - akordy a text

Šest bílých koní - akordy a text

El Paso - taby

El Paso (solova kytara part) - taby

Whisky plnej džbán - akordy

viac




home | interpreti | register piesní | cd & dvd shop | pripomienky/nápady | kontakt | ochrana údajov | inzercia

TOPlist